  0
SECTION
  2
HEADER
  9
$ACADVER
  1
AC1018
  9
$ACADMAINTVER
 70
     0
  9
$DWGCODEPAGE
  3
ANSI_936
  9
$INSBASE
 10
0.0
 20
0.0
 30
0.0
  9
$EXTMIN
 10
227.2781886998494
 20
-9.524118813211536
 30
0.0
  9
$EXTMAX
 10
697.734952091264
 20
383.5884533299273
 30
0.0
  9
$LIMMIN
 10
0.0
 20
0.0
  9
$LIMMAX
 10
420.0
 20
297.0
  9
$ORTHOMODE
 70
     0
  9
$REGENMODE
 70
     1
  9
$FILLMODE
 70
     1
  9
$QTEXTMODE
 70
     0
  9
$MIRRTEXT
 70
     0
  9
$LTSCALE
 40
1.0
  9
$ATTMODE
 70
     1
  9
$TEXTSIZE
 40
2.5
  9
$TRACEWID
 40
1.0
  9
$TEXTSTYLE
  7
Standard
  9
$CLAYER
  8
0
  9
$CELTYPE
  6
ByLayer
  9
$CECOLOR
 62
   256
  9
$CELTSCALE
 40
1.0
  9
$DISPSILH
 70
     0
  9
$DIMSCALE
 40
1.0
  9
$DIMASZ
 40
2.5
  9
$DIMEXO
 40
0.625
  9
$DIMDLI
 40
3.75
  9
$DIMRND
 40
0.0
  9
$DIMDLE
 40
0.0
  9
$DIMEXE
 40
1.25
  9
$DIMTP
 40
0.0
  9
$DIMTM
 40
0.0
  9
$DIMTXT
 40
2.5
  9
$DIMCEN
 40
2.5
  9
$DIMTSZ
 40
0.0
  9
$DIMTOL
 70
     0
  9
$DIMLIM
 70
     0
  9
$DIMTIH
 70
     0
  9
$DIMTOH
 70
     0
  9
$DIMSE1
 70
     0
  9
$DIMSE2
 70
     0
  9
$DIMTAD
 70
     1
  9
$DIMZIN
 70
     8
  9
$DIMBLK
  1

  9
$DIMASO
 70
     1
  9
$DIMSHO
 70
     1
  9
$DIMPOST
  1

  9
$DIMAPOST
  1

  9
$DIMALT
 70
     1
  9
$DIMALTD
 70
     3
  9
$DIMALTF
 40
0.03937007874016
  9
$DIMLFAC
 40
1.0
  9
$DIMTOFL
 70
     1
  9
$DIMTVP
 40
0.0
  9
$DIMTIX
 70
     0
  9
$DIMSOXD
 70
     0
  9
$DIMSAH
 70
     0
  9
$DIMBLK1
  1

  9
$DIMBLK2
  1

  9
$DIMSTYLE
  2
ISO-25
  9
$DIMCLRD
 70
     0
  9
$DIMCLRE
 70
     0
  9
$DIMCLRT
 70
     0
  9
$DIMTFAC
 40
1.0
  9
$DIMGAP
 40
0.625
  9
$DIMJUST
 70
     0
  9
$DIMSD1
 70
     0
  9
$DIMSD2
 70
     0
  9
$DIMTOLJ
 70
     0
  9
$DIMTZIN
 70
     8
  9
$DIMALTZ
 70
     0
  9
$DIMALTTZ
 70
     0
  9
$DIMUPT
 70
     0
  9
$DIMDEC
 70
     2
  9
$DIMTDEC
 70
     2
  9
$DIMALTU
 70
     7
  9
$DIMALTTD
 70
     3
  9
$DIMTXSTY
  7
Standard
  9
$DIMAUNIT
 70
     0
  9
$DIMADEC
 70
     0
  9
$DIMALTRND
 40
0.0
  9
$DIMAZIN
 70
     0
  9
$DIMDSEP
 70
    46
  9
$DIMATFIT
 70
     3
  9
$DIMFRAC
 70
     0
  9
$DIMLDRBLK
  1

  9
$DIMLUNIT
 70
     2
  9
$DIMLWD
 70
    -2
  9
$DIMLWE
 70
    -2
  9
$DIMTMOVE
 70
     0
  9
$LUNITS
 70
     2
  9
$LUPREC
 70
     4
  9
$SKETCHINC
 40
1.0
  9
$FILLETRAD
 40
0.0
  9
$AUNITS
 70
     0
  9
$AUPREC
 70
     0
  9
$MENU
  1
.
  9
$ELEVATION
 40
0.0
  9
$PELEVATION
 40
0.0
  9
$THICKNESS
 40
0.0
  9
$LIMCHECK
 70
     0
  9
$CHAMFERA
 40
0.0
  9
$CHAMFERB
 40
0.0
  9
$CHAMFERC
 40
0.0
  9
$CHAMFERD
 40
0.0
  9
$SKPOLY
 70
     0
  9
$TDCREATE
 40
2455880.347173033
  9
$TDUCREATE
 40
2455880.013839699
  9
$TDUPDATE
 40
2455880.486273507
  9
$TDUUPDATE
 40
2455880.152940174
  9
$TDINDWG
 40
0.0573911343
  9
$TDUSRTIMER
 40
0.0573828009
  9
$USRTIMER
 70
     1
  9
$ANGBASE
 50
0.0
  9
$ANGDIR
 70
     0
  9
$PDMODE
 70
     0
  9
$PDSIZE
 40
0.0
  9
$PLINEWID
 40
0.0
  9
$SPLFRAME
 70
     0
  9
$SPLINETYPE
 70
     6
  9
$SPLINESEGS
 70
     8
  9
$HANDSEED
  5
200
  9
$SURFTAB1
 70
     6
  9
$SURFTAB2
 70
     6
  9
$SURFTYPE
 70
     6
  9
$SURFU
 70
     6
  9
$SURFV
 70
     6
  9
$UCSBASE
  2

  9
$UCSNAME
  2

  9
$UCSORG
 10
0.0
 20
0.0
 30
0.0
  9
$UCSXDIR
 10
1.0
 20
0.0
 30
0.0
  9
$UCSYDIR
 10
0.0
 20
1.0
 30
0.0
  9
$UCSORTHOREF
  2

  9
$UCSORTHOVIEW
 70
     0
  9
$UCSORGTOP
 10
0.0
 20
0.0
 30
0.0
  9
$UCSORGBOTTOM
 10
0.0
 20
0.0
 30
0.0
  9
$UCSORGLEFT
 10
0.0
 20
0.0
 30
0.0
  9
$UCSORGRIGHT
 10
0.0
 20
0.0
 30
0.0
  9
$UCSORGFRONT
 10
0.0
 20
0.0
 30
0.0
  9
$UCSORGBACK
 10
0.0
 20
0.0
 30
0.0
  9
$PUCSBASE
  2

  9
$PUCSNAME
  2

  9
$PUCSORG
 10
0.0
 20
0.0
 30
0.0
  9
$PUCSXDIR
 10
1.0
 20
0.0
 30
0.0
  9
$PUCSYDIR
 10
0.0
 20
1.0
 30
0.0
  9
$PUCSORTHOREF
  2

  9
$PUCSORTHOVIEW
 70
     0
  9
$PUCSORGTOP
 10
0.0
 20
0.0
 30
0.0
  9
$PUCSORGBOTTOM
 10
0.0
 20
0.0
 30
0.0
  9
$PUCSORGLEFT
 10
0.0
 20
0.0
 30
0.0
  9
$PUCSORGRIGHT
 10
0.0
 20
0.0
 30
0.0
  9
$PUCSORGFRONT
 10
0.0
 20
0.0
 30
0.0
  9
$PUCSORGBACK
 10
0.0
 20
0.0
 30
0.0
  9
$USERI1
 70
     0
  9
$USERI2
 70
     0
  9
$USERI3
 70
     0
  9
$USERI4
 70
     0
  9
$USERI5
 70
     0
  9
$USERR1
 40
0.0
  9
$USERR2
 40
0.0
  9
$USERR3
 40
0.0
  9
$USERR4
 40
0.0
  9
$USERR5
 40
0.0
  9
$WORLDVIEW
 70
     1
  9
$SHADEDGE
 70
     3
  9
$SHADEDIF
 70
    70
  9
$TILEMODE
 70
     1
  9
$MAXACTVP
 70
    64
  9
$PINSBASE
 10
0.0
 20
0.0
 30
0.0
  9
$PLIMCHECK
 70
     0
  9
$PEXTMIN
 10
1.000000000000000E+20
 20
1.000000000000000E+20
 30
1.000000000000000E+20
  9
$PEXTMAX
 10
-1.000000000000000E+20
 20
-1.000000000000000E+20
 30
-1.000000000000000E+20
  9
$PLIMMIN
 10
0.0
 20
0.0
  9
$PLIMMAX
 10
420.0
 20
297.0
  9
$UNITMODE
 70
     0
  9
$VISRETAIN
 70
     1
  9
$PLINEGEN
 70
     0
  9
$PSLTSCALE
 70
     1
  9
$TREEDEPTH
 70
  3020
  9
$CMLSTYLE
  2
Standard
  9
$CMLJUST
 70
     0
  9
$CMLSCALE
 40
20.0
  9
$PROXYGRAPHICS
 70
     1
  9
$MEASUREMENT
 70
     1
  9
$CELWEIGHT
370
    -1
  9
$ENDCAPS
280
     0
  9
$JOINSTYLE
280
     0
  9
$LWDISPLAY
290
     0
  9
$INSUNITS
 70
     4
  9
$HYPERLINKBASE
  1

  9
$STYLESHEET
  1

  9
$XEDIT
290
     1
  9
$CEPSNTYPE
380
     0
  9
$PSTYLEMODE
290
     1
  9
$FINGERPRINTGUID
  2
{CB1F124D-4BF8-46EC-AFCF-95FAF6CBECD4}
  9
$VERSIONGUID
  2
{AA251660-627F-4179-A21E-09B0ED9C6CF0}
  9
$EXTNAMES
290
     1
  9
$PSVPSCALE
 40
0.0
  9
$OLESTARTUP
290
     0
  9
$SORTENTS
280
   127
  9
$INDEXCTL
280
     0
  9
$HIDETEXT
280
     1
  9
$XCLIPFRAME
290
     0
  9
$HALOGAP
280
     0
  9
$OBSCOLOR
 70
   257
  9
$OBSLTYPE
280
     0
  9
$INTERSECTIONDISPLAY
280
     0
  9
$INTERSECTIONCOLOR
 70
   257
  9
$DIMASSOC
280
     2
  9
$PROJECTNAME
  1

  0
ENDSEC
  0
SECTION
  2
CLASSES
  0
CLASS
  1
ACDBDICTIONARYWDFLT
  2
AcDbDictionaryWithDefault
  3
ObjectDBX Classes
 90
        0
 91
        1
280
     0
281
     0
  0
CLASS
  1
DIMASSOC
  2
AcDbDimAssoc
  3
"AcDbDimAssoc|Product Desc:     AcDim ARX App For Dimension|Company:          Autodesk, Inc.|WEB Address:      www.autodesk.com"
 90
        0
 91
        0
280
     0
281
     0
  0
ENDSEC
  0
SECTION
  2
TABLES
  0
TABLE
  2
VPORT
  5
8
330
0
100
AcDbSymbolTable
 70
     3
  0
VPORT
  5
1FF
330
8
100
AcDbSymbolTableRecord
100
AcDbViewportTableRecord
  2
*Active
 70
     0
 10
0.0
 20
0.0
 11
1.0
 21
1.0
 12
466.2491489681348
 22
172.0898242285049
 13
0.0
 23
0.0
 14
10.0
 24
10.0
 15
10.0
 25
10.0
 16
0.0
 26
0.0
 36
1.0
 17
0.0
 27
0.0
 37
0.0
 40
448.8046593707013
 41
2.155234657039711
 42
50.0
 43
0.0
 44
0.0
 50
0.0
 51
0.0
 71
     0
 72
  1000
 73
     1
 74
     3
 75
     0
 76
     0
 77
     0
 78
     0
281
     0
 65
     1
110
0.0
120
0.0
130
0.0
111
1.0
121
0.0
131
0.0
112
0.0
122
1.0
132
0.0
 79
     0
146
0.0
  0
ENDTAB
  0
TABLE
  2
LTYPE
  5
5
330
0
100
AcDbSymbolTable
 70
     2
  0
LTYPE
  5
14
330
5
100
AcDbSymbolTableRecord
100
AcDbLinetypeTableRecord
  2
ByBlock
 70
     0
  3

 72
    65
 73
     0
 40
0.0
  0
LTYPE
  5
15
330
5
100
AcDbSymbolTableRecord
100
AcDbLinetypeTableRecord
  2
ByLayer
 70
     0
  3

 72
    65
 73
     0
 40
0.0
  0
LTYPE
  5
16
330
5
100
AcDbSymbolTableRecord
100
AcDbLinetypeTableRecord
  2
Continuous
 70
     0
  3
Solid line
 72
    65
 73
     0
 40
0.0
  0
LTYPE
  5
36
330
5
100
AcDbSymbolTableRecord
100
AcDbLinetypeTableRecord
  2
ACAD_ISO02W100
 70
     0
  3
ISO dash __ __ __ __ __ __ __ __ __ __ __ __ __
 72
    65
 73
     2
 40
15.0
 49
12.0
 74
     0
 49
-3.0
 74
     0
  0
ENDTAB
  0
TABLE
  2
LAYER
  5
2
102
{ACAD_XDICTIONARY
360
78
102
}
330
0
100
AcDbSymbolTable
 70
     2
  0
LAYER
  5
10
330
2
100
AcDbSymbolTableRecord
100
AcDbLayerTableRecord
  2
0
 70
     0
 62
     7
  6
Continuous
370
    -3
390
F
  0
LAYER
  5
39
330
2
100
AcDbSymbolTableRecord
100
AcDbLayerTableRecord
  2
Defpoints
 70
     0
 62
     7
  6
Continuous
290
     0
370
    -3
390
F
  0
ENDTAB
  0
TABLE
  2
STYLE
  5
3
330
0
100
AcDbSymbolTable
 70
     2
  0
STYLE
  5
11
330
3
100
AcDbSymbolTableRecord
100
AcDbTextStyleTableRecord
  2
Standard
 70
     0
 40
0.0
 41
1.0
 50
0.0
 71
     0
 42
2.5
  3
txt
  4

  0
STYLE
  5
35
330
3
100
AcDbSymbolTableRecord
100
AcDbTextStyleTableRecord
  2

 70
     1
 40
0.0
 41
1.0
 50
0.0
 71
     0
 42
2.5
  3
ltypeshp.shx
  4

  0
ENDTAB
  0
TABLE
  2
VIEW
  5
6
330
0
100
AcDbSymbolTable
 70
     0
  0
ENDTAB
  0
TABLE
  2
UCS
  5
7
330
0
100
AcDbSymbolTable
 70
     0
  0
ENDTAB
  0
TABLE
  2
APPID
  5
9
330
0
100
AcDbSymbolTable
 70
     1
  0
APPID
  5
12
330
9
100
AcDbSymbolTableRecord
100
AcDbRegAppTableRecord
  2
ACAD
 70
     0
  0
ENDTAB
  0
TABLE
  2
DIMSTYLE
  5
A
330
0
100
AcDbSymbolTable
 70
     2
100
AcDbDimStyleTable
 71
     1
340
29
  0
DIMSTYLE
105
29
330
A
100
AcDbSymbolTableRecord
100
AcDbDimStyleTableRecord
  2
ISO-25
 70
     0
 41
2.5
 42
0.625
 43
3.75
 44
1.25
 73
     0
 74
     0
 77
     1
 78
     8
140
2.5
141
2.5
143
0.03937007874016
147
0.625
170
     1
171
     3
172
     1
271
     2
272
     2
273
     7
274
     3
283
     0
284
     8
340
11
  0
DIMSTYLE
105
77
330
A
100
AcDbSymbolTableRecord
100
AcDbDimStyleTableRecord
  2
Standard
 70
     0
170
     1
273
     7
277
     5
340
11
  0
ENDTAB
  0
TABLE
  2
BLOCK_RECORD
  5
1
330
0
100
AcDbSymbolTable
 70
    14
  0
BLOCK_RECORD
  5
21
330
1
100
AcDbSymbolTableRecord
100
AcDbBlockTableRecord
  2
*Model_Space
340
24
  0
BLOCK_RECORD
  5
1D
330
1
100
AcDbSymbolTableRecord
100
AcDbBlockTableRecord
  2
*Paper_Space
340
20
  0
BLOCK_RECORD
  5
25
330
1
100
AcDbSymbolTableRecord
100
AcDbBlockTableRecord
  2
*Paper_Space0
340
28
  0
BLOCK_RECORD
  5
3A
330
1
100
AcDbSymbolTableRecord
100
AcDbBlockTableRecord
  2
*D1
340
0
  0
BLOCK_RECORD
  5
53
330
1
100
AcDbSymbolTableRecord
100
AcDbBlockTableRecord
  2
*D2
340
0
  0
BLOCK_RECORD
  5
98
330
1
100
AcDbSymbolTableRecord
100
AcDbBlockTableRecord
  2
*D3
340
0
  0
BLOCK_RECORD
  5
BF
330
1
100
AcDbSymbolTableRecord
100
AcDbBlockTableRecord
  2
*D4
340
0
  0
BLOCK_RECORD
  5
D9
330
1
100
AcDbSymbolTableRecord
100
AcDbBlockTableRecord
  2
*D5
340
0
  0
BLOCK_RECORD
  5
112
330
1
100
AcDbSymbolTableRecord
100
AcDbBlockTableRecord
  2
*D6
340
0
  0
BLOCK_RECORD
  5
126
330
1
100
AcDbSymbolTableRecord
100
AcDbBlockTableRecord
  2
*D7
340
0
  0
BLOCK_RECORD
  5
139
330
1
100
AcDbSymbolTableRecord
100
AcDbBlockTableRecord
  2
*D8
340
0
  0
BLOCK_RECORD
  5
15A
330
1
100
AcDbSymbolTableRecord
100
AcDbBlockTableRecord
  2
*D9
340
0
  0
BLOCK_RECORD
  5
17C
330
1
100
AcDbSymbolTableRecord
100
AcDbBlockTableRecord
  2
*D10
340
0
  0
BLOCK_RECORD
  5
19F
330
1
100
AcDbSymbolTableRecord
100
AcDbBlockTableRecord
  2
*D11
340
0
  0
BLOCK_RECORD
  5
1B7
330
1
100
AcDbSymbolTableRecord
100
AcDbBlockTableRecord
  2
*D12
340
0
  0
BLOCK_RECORD
  5
1D0
330
1
100
AcDbSymbolTableRecord
100
AcDbBlockTableRecord
  2
*D13
340
0
  0
ENDTAB
  0
ENDSEC
  0
SECTION
  2
BLOCKS
  0
BLOCK
  5
22
330
21
100
AcDbEntity
  8
0
100
AcDbBlockBegin
  2
*Model_Space
 70
     0
 10
0.0
 20
0.0
 30
0.0
  3
*Model_Space
  1

  0
ENDBLK
  5
23
330
21
100
AcDbEntity
  8
0
100
AcDbBlockEnd
  0
BLOCK
  5
1E
330
1D
100
AcDbEntity
 67
     1
  8
0
100
AcDbBlockBegin
  2
*Paper_Space
 70
     0
 10
0.0
 20
0.0
 30
0.0
  3
*Paper_Space
  1

  0
ENDBLK
  5
1F
330
1D
100
AcDbEntity
 67
     1
  8
0
100
AcDbBlockEnd
  0
BLOCK
  5
26
330
25
100
AcDbEntity
  8
0
100
AcDbBlockBegin
  2
*Paper_Space0
 70
     0
 10
0.0
 20
0.0
 30
0.0
  3
*Paper_Space0
  1

  0
ENDBLK
  5
27
330
25
100
AcDbEntity
  8
0
100
AcDbBlockEnd
  0
BLOCK
  5
44
330
3A
100
AcDbEntity
  8
0
100
AcDbBlockBegin
  2
*D1
 70
     1
 10
0.0
 20
0.0
 30
0.0
  3
*D1
  1

  0
LINE
  5
47
330
3A
100
AcDbEntity
  8
0
 62
     0
370
    -2
100
AcDbLine
 10
448.9946294863918
 20
352.9628372153129
 30
0.0
 11
685.9603280629641
 21
352.9628372153128
 31
0.0
  0
LINE
  5
48
330
3A
100
AcDbEntity
  8
0
 62
     0
370
    -2
100
AcDbLine
 10
446.4025124198157
 20
-13.52411881321154
 30
0.0
 11
685.960328062964
 21
-13.52411881321161
 31
0.0
  0
LINE
  5
49
330
3A
100
AcDbEntity
  8
0
 62
     0
370
    -2
100
AcDbLine
 10
684.7103280629641
 20
350.4628372153129
 30
0.0
 11
684.710328062964
 21
-11.02411881321161
 31
0.0
  0
SOLID
  5
4A
330
3A
100
AcDbEntity
  8
0
 62
     0
100
AcDbTrace
 10
684.2936613962972
 20
350.4628372153129
 30
0.0
 11
685.1269947296307
 21
350.4628372153129
 31
0.0
 12
684.7103280629641
 22
352.9628372153128
 32
0.0
 13
684.7103280629641
 23
352.9628372153128
 33
0.0
  0
SOLID
  5
4B
330
3A
100
AcDbEntity
  8
0
 62
     0
100
AcDbTrace
 10
684.2936613962972
 20
-11.02411881321161
 30
0.0
 11
685.1269947296306
 21
-11.02411881321161
 31
0.0
 12
684.710328062964
 22
-13.52411881321161
 32
0.0
 13
684.710328062964
 23
-13.52411881321161
 33
0.0
  0
MTEXT
  5
4C
330
3A
100
AcDbEntity
  8
0
 62
     0
100
AcDbMText
 10
682.835328062964
 20
169.7193592010506
 30
0.0
 40
2.5
 41
0.0
 71
     5
 72
     1
  1
366.49
 11
0.0000000000000001
 21
1.0
 31
0.0
 73
     1
 44
1.0
  0
POINT
  5
4D
330
3A
100
AcDbEntity
  8
Defpoints
 62
     0
100
AcDbPoint
 10
448.3696294863919
 20
352.9628372153129
 30
0.0
  0
POINT
  5
4E
330
3A
100
AcDbEntity
  8
Defpoints
 62
     0
100
AcDbPoint
 10
445.7775124198156
 20
-13.52411881321154
 30
0.0
  0
POINT
  5
4F
330
3A
100
AcDbEntity
  8
Defpoints
 62
     0
100
AcDbPoint
 10
684.710328062964
 20
-13.52411881321161
 30
0.0
  0
ENDBLK
  5
45
330
3A
100
AcDbEntity
  8
0
100
AcDbBlockEnd
  0
BLOCK
  5
5D
330
53
100
AcDbEntity
  8
0
100
AcDbBlockBegin
  2
*D2
 70
     1
 10
0.0
 20
0.0
 30
0.0
  3
*D2
  1

  0
LINE
  5
60
330
53
100
AcDbEntity
  8
0
 62
     0
370
    -2
100
AcDbLine
 10
225.7775138688246
 20
171.621564529875
 30
0.0
 11
225.7775138688246
 21
383.6584569878496
 31
0.0
  0
LINE
  5
61
330
53
100
AcDbEntity
  8
0
 62
     0
370
    -2
100
AcDbLine
 10
665.777510970807
 20
171.5797872603029
 30
0.0
 11
665.777510970807
 21
383.6584569878496
 31
0.0
  0
LINE
  5
62
330
53
100
AcDbEntity
  8
0
 62
     0
370
    -2
100
AcDbLine
 10
228.2775138688246
 20
382.4084569878497
 30
0.0
 11
663.277510970807
 21
382.4084569878497
 31
0.0
  0
SOLID
  5
63
330
53
100
AcDbEntity
  8
0
 62
     0
100
AcDbTrace
 10
228.2775138688246
 20
382.8251236545164
 30
0.0
 11
228.2775138688246
 21
381.991790321183
 31
0.0
 12
225.7775138688246
 22
382.4084569878497
 32
0.0
 13
225.7775138688246
 23
382.4084569878497
 33
0.0
  0
SOLID
  5
64
330
53
100
AcDbEntity
  8
0
 62
     0
100
AcDbTrace
 10
663.277510970807
 20
382.8251236545164
 30
0.0
 11
663.277510970807
 21
381.991790321183
 31
0.0
 12
665.777510970807
 22
382.4084569878497
 32
0.0
 13
665.777510970807
 23
382.4084569878497
 33
0.0
  0
MTEXT
  5
65
330
53
100
AcDbEntity
  8
0
 62
     0
100
AcDbMText
 10
445.7775124198158
 20
384.2834569878497
 30
0.0
 40
2.5
 41
0.0
 71
     5
 72
     1
  1
440
 73
     1
 44
1.0
  0
POINT
  5
66
330
53
100
AcDbEntity
  8
Defpoints
 62
     0
100
AcDbPoint
 10
225.7775138688246
 20
170.996564529875
 30
0.0
  0
POINT
  5
67
330
53
100
AcDbEntity
  8
Defpoints
 62
     0
100
AcDbPoint
 10
665.777510970807
 20
170.9547872603029
 30
0.0
  0
POINT
  5
68
330
53
100
AcDbEntity
  8
Defpoints
 62
     0
100
AcDbPoint
 10
665.777510970807
 20
382.4084569878497
 30
0.0
  0
ENDBLK
  5
5E
330
53
100
AcDbEntity
  8
0
100
AcDbBlockEnd
  0
BLOCK
  5
A2
330
98
100
AcDbEntity
  8
0
100
AcDbBlockBegin
  2
*D3
 70
     1
 10
0.0
 20
0.0
 30
0.0
  3
*D3
  1

  0
LINE
  5
AF
330
98
100
AcDbEntity
  8
0
 62
     0
370
    -2
100
AcDbLine
 10
445.1525124198155
 20
-11.02411881321148
 30
0.0
 11
436.5344243118363
 21
-11.02411881321148
 31
0.0
  0
LINE
  5
B0
330
98
100
AcDbEntity
  8
0
 62
     0
370
    -2
100
AcDbLine
 10
524.6392435292963
 20
80.57206053968684
 30
0.0
 11
436.5344243118363
 21
80.57206053968686
 31
0.0
  0
LINE
  5
B1
330
98
100
AcDbEntity
  8
0
 62
     0
370
    -2
100
AcDbLine
 10
437.7844243118365
 20
-8.524118813211485
 30
0.0
 11
437.7844243118365
 21
78.07206053968686
 31
0.0
  0
SOLID
  5
B2
330
98
100
AcDbEntity
  8
0
 62
     0
100
AcDbTrace
 10
437.3677576451698
 20
-8.524118813211485
 30
0.0
 11
438.2010909785032
 21
-8.524118813211485
 31
0.0
 12
437.7844243118365
 22
-11.02411881321148
 32
0.0
 13
437.7844243118365
 23
-11.02411881321148
 33
0.0
  0
SOLID
  5
B3
330
98
100
AcDbEntity
  8
0
 62
     0
100
AcDbTrace
 10
437.3677576451698
 20
78.07206053968686
 30
0.0
 11
438.2010909785032
 21
78.07206053968686
 31
0.0
 12
437.7844243118365
 22
80.57206053968686
 32
0.0
 13
437.7844243118365
 23
80.57206053968686
 33
0.0
  0
MTEXT
  5
B4
330
98
100
AcDbEntity
  8
0
 62
     0
100
AcDbMText
 10
435.9094243118366
 20
34.77397086323776
 30
0.0
 40
2.5
 41
0.0
 71
     5
 72
     1
  1
91.6
 11
0.0000000000000001
 21
1.0
 31
0.0
 73
     1
 44
1.0
  0
POINT
  5
B5
330
98
100
AcDbEntity
  8
Defpoints
 62
     0
100
AcDbPoint
 10
445.7775124198156
 20
-11.02411881321148
 30
0.0
  0
POINT
  5
B6
330
98
100
AcDbEntity
  8
Defpoints
 62
     0
100
AcDbPoint
 10
525.2642435292963
 20
80.57206053968684
 30
0.0
  0
POINT
  5
B7
330
98
100
AcDbEntity
  8
Defpoints
 62
     0
100
AcDbPoint
 10
437.7844243118365
 20
80.57206053968686
 30
0.0
  0
ENDBLK
  5
A3
330
98
100
AcDbEntity
  8
0
100
AcDbBlockEnd
  0
BLOCK
  5
CA
330
BF
100
AcDbEntity
  8
0
100
AcDbBlockBegin
  2
*D4
 70
     1
 10
0.0
 20
0.0
 30
0.0
  3
*D4
  1

  0
LINE
  5
FA
330
BF
100
AcDbEntity
  8
0
 62
     0
370
    -2
100
AcDbLine
 10
685.0820029516198
 20
171.6006758950889
 30
0.0
 11
685.0820029516198
 21
351.7128372153128
 31
0.0
  0
LINE
  5
FB
330
BF
100
AcDbEntity
  8
0
 62
     0
370
    -2
100
AcDbLine
 10
685.0820029516198
 20
171.6006758950889
 30
0.0
 11
685.0820029516198
 21
351.7128372153128
 31
0.0
  0
LINE
  5
FC
330
BF
100
AcDbEntity
  8
0
 62
     0
370
    -2
100
AcDbLine
 10
682.5820029516201
 20
350.4628372153129
 30
0.0
 11
680.08200295162
 21
350.4628372153129
 31
0.0
  0
LINE
  5
FD
330
BF
100
AcDbEntity
  8
0
 62
     0
370
    -2
100
AcDbLine
 10
687.5820029516201
 20
350.4628372153129
 30
0.0
 11
692.9986696182867
 21
350.4628372153129
 31
0.0
  0
SOLID
  5
FE
330
BF
100
AcDbEntity
  8
0
 62
     0
100
AcDbTrace
 10
682.5820029516201
 20
350.8795038819795
 30
0.0
 11
682.5820029516201
 21
350.0461705486462
 31
0.0
 12
685.0820029516198
 22
350.4628372153129
 32
0.0
 13
685.0820029516198
 23
350.4628372153129
 33
0.0
  0
SOLID
  5
FF
330
BF
100
AcDbEntity
  8
0
 62
     0
100
AcDbTrace
 10
687.5820029516201
 20
350.8795038819795
 30
0.0
 11
687.5820029516201
 21
350.0461705486462
 31
0.0
 12
685.0820029516198
 22
350.4628372153129
 32
0.0
 13
685.0820029516198
 23
350.4628372153129
 33
0.0
  0
MTEXT
  5
100
330
BF
100
AcDbEntity
  8
0
 62
     0
100
AcDbMText
 10
691.5403362849533
 20
352.3378372153128
 30
0.0
 40
2.5
 41
0.0
 71
     5
 72
     1
  1
0
 73
     1
 44
1.0
  0
POINT
  5
101
330
BF
100
AcDbEntity
  8
Defpoints
 62
     0
100
AcDbPoint
 10
685.0820029516198
 20
170.9756758950889
 30
0.0
  0
POINT
  5
102
330
BF
100
AcDbEntity
  8
Defpoints
 62
     0
100
AcDbPoint
 10
685.0820029516198
 20
170.9756758950889
 30
0.0
  0
POINT
  5
103
330
BF
100
AcDbEntity
  8
Defpoints
 62
     0
100
AcDbPoint
 10
685.0820029516198
 20
350.4628372153129
 30
0.0
  0
ENDBLK
  5
CB
330
BF
100
AcDbEntity
  8
0
100
AcDbBlockEnd
  0
BLOCK
  5
E3
330
D9
100
AcDbEntity
  8
0
100
AcDbBlockBegin
  2
*D5
 70
     1
 10
0.0
 20
0.0
 30
0.0
  3
*D5
  1

  0
LINE
  5
E6
330
D9
100
AcDbEntity
  8
0
 62
     0
370
    -2
100
AcDbLine
 10
446.4025124198157
 20
170.975675895089
 30
0.0
 11
686.33200295162
 21
170.9756758950889
 31
0.0
  0
LINE
  5
E7
330
D9
100
AcDbEntity
  8
0
 62
     0
370
    -2
100
AcDbLine
 10
445.7775124198156
 20
-11.02411881321148
 30
0.0
 11
686.33200295162
 21
-11.02411881321155
 31
0.0
  0
LINE
  5
E8
330
D9
100
AcDbEntity
  8
0
 62
     0
370
    -2
100
AcDbLine
 10
685.0820029516198
 20
168.4756758950889
 30
0.0
 11
685.0820029516198
 21
-8.524118813211554
 31
0.0
  0
SOLID
  5
E9
330
D9
100
AcDbEntity
  8
0
 62
     0
100
AcDbTrace
 10
684.6653362849536
 20
168.4756758950889
 30
0.0
 11
685.4986696182867
 21
168.4756758950889
 31
0.0
 12
685.0820029516198
 22
170.9756758950889
 32
0.0
 13
685.0820029516198
 23
170.9756758950889
 33
0.0
  0
SOLID
  5
EA
330
D9
100
AcDbEntity
  8
0
 62
     0
100
AcDbTrace
 10
684.6653362849536
 20
-8.524118813211554
 30
0.0
 11
685.4986696182867
 21
-8.524118813211554
 31
0.0
 12
685.0820029516198
 22
-11.02411881321155
 32
0.0
 13
685.0820029516198
 23
-11.02411881321155
 33
0.0
  0
MTEXT
  5
EB
330
D9
100
AcDbEntity
  8
0
 62
     0
100
AcDbMText
 10
683.20700295162
 20
79.97577854093879
 30
0.0
 40
2.5
 41
0.0
 71
     5
 72
     1
  1
182
 11
0.0000000000000001
 21
1.0
 31
0.0
 73
     1
 44
1.0
  0
POINT
  5
EC
330
D9
100
AcDbEntity
  8
Defpoints
 62
     0
100
AcDbPoint
 10
445.7775124198158
 20
170.975675895089
 30
0.0
  0
POINT
  5
ED
330
D9
100
AcDbEntity
  8
Defpoints
 62
     0
100
AcDbPoint
 10
445.1525124198155
 20
-11.02411881321148
 30
0.0
  0
POINT
  5
EE
330
D9
100
AcDbEntity
  8
Defpoints
 62
     0
100
AcDbPoint
 10
685.0820029516198
 20
-11.02411881321155
 30
0.0
  0
ENDBLK
  5
E4
330
D9
100
AcDbEntity
  8
0
100
AcDbBlockEnd
  0
BLOCK
  5
11C
330
112
100
AcDbEntity
  8
0
100
AcDbBlockBegin
  2
*D6
 70
     1
 10
0.0
 20
0.0
 30
0.0
  3
*D6
  1

  0
LINE
  5
113
330
112
100
AcDbEntity
  8
0
 62
     0
370
    -2
100
AcDbLine
 10
685.3353280629638
 20
352.9628372153128
 30
0.0
 11
700.3141777994502
 21
352.9628372153128
 31
0.0
  0
LINE
  5
114
330
112
100
AcDbEntity
  8
0
 62
     0
370
    -2
100
AcDbLine
 10
685.7519947296306
 20
-11.02411881321161
 30
0.0
 11
700.31417779945
 21
-11.02411881321161
 31
0.0
  0
LINE
  5
115
330
112
100
AcDbEntity
  8
0
 62
     0
370
    -2
100
AcDbLine
 10
699.0641777994502
 20
350.4628372153129
 30
0.0
 11
699.06417779945
 21
-8.524118813211613
 31
0.0
  0
SOLID
  5
116
330
112
100
AcDbEntity
  8
0
 62
     0
100
AcDbTrace
 10
698.6475111327836
 20
350.4628372153129
 30
0.0
 11
699.480844466117
 21
350.4628372153129
 31
0.0
 12
699.0641777994502
 22
352.9628372153128
 32
0.0
 13
699.0641777994502
 23
352.9628372153128
 33
0.0
  0
SOLID
  5
117
330
112
100
AcDbEntity
  8
0
 62
     0
100
AcDbTrace
 10
698.6475111327835
 20
-8.524118813211613
 30
0.0
 11
699.4808444661167
 21
-8.524118813211613
 31
0.0
 12
699.06417779945
 22
-11.02411881321161
 32
0.0
 13
699.06417779945
 23
-11.02411881321161
 33
0.0
  0
MTEXT
  5
118
330
112
100
AcDbEntity
  8
0
 62
     0
100
AcDbMText
 10
697.18917779945
 20
170.9693592010506
 30
0.0
 40
2.5
 41
0.0
 71
     5
 72
     1
  1
363.99
 11
0.0000000000000001
 21
1.0
 31
0.0
 73
     1
 44
1.0
  0
POINT
  5
119
330
112
100
AcDbEntity
  8
Defpoints
 62
     0
100
AcDbPoint
 10
684.7103280629641
 20
352.9628372153128
 30
0.0
  0
POINT
  5
11A
330
112
100
AcDbEntity
  8
Defpoints
 62
     0
100
AcDbPoint
 10
685.1269947296306
 20
-11.02411881321161
 30
0.0
  0
POINT
  5
11B
330
112
100
AcDbEntity
  8
Defpoints
 62
     0
100
AcDbPoint
 10
699.06417779945
 20
-11.02411881321161
 30
0.0
  0
ENDBLK
  5
11D
330
112
100
AcDbEntity
  8
0
100
AcDbBlockEnd
  0
BLOCK
  5
130
330
126
100
AcDbEntity
  8
0
100
AcDbBlockBegin
  2
*D7
 70
     1
 10
0.0
 20
0.0
 30
0.0
  3
*D7
  1

  0
LINE
  5
127
330
126
100
AcDbEntity
  8
0
 62
     0
370
    -2
100
AcDbLine
 10
225.7775138688246
 20
383.0334569878496
 30
0.0
 11
225.7775138688246
 21
389.9738466976907
 31
0.0
  0
LINE
  5
128
330
126
100
AcDbEntity
  8
0
 62
     0
370
    -2
100
AcDbLine
 10
665.777510970807
 20
383.0334569878496
 30
0.0
 11
665.777510970807
 21
389.9738466976907
 31
0.0
  0
LINE
  5
129
330
126
100
AcDbEntity
  8
0
 62
     0
370
    -2
100
AcDbLine
 10
228.2775138688246
 20
388.7238466976906
 30
0.0
 11
663.277510970807
 21
388.7238466976906
 31
0.0
  0
SOLID
  5
12A
330
126
100
AcDbEntity
  8
0
 62
     0
100
AcDbTrace
 10
228.2775138688246
 20
389.1405133643573
 30
0.0
 11
228.2775138688246
 21
388.307180031024
 31
0.0
 12
225.7775138688246
 22
388.7238466976906
 32
0.0
 13
225.7775138688246
 23
388.7238466976906
 33
0.0
  0
SOLID
  5
12B
330
126
100
AcDbEntity
  8
0
 62
     0
100
AcDbTrace
 10
663.277510970807
 20
389.1405133643573
 30
0.0
 11
663.277510970807
 21
388.307180031024
 31
0.0
 12
665.777510970807
 22
388.7238466976906
 32
0.0
 13
665.777510970807
 23
388.7238466976906
 33
0.0
  0
MTEXT
  5
12C
330
126
100
AcDbEntity
  8
0
 62
     0
100
AcDbMText
 10
445.7775124198158
 20
391.2536086024526
 30
0.0
 40
2.5
 41
0.0
 71
     5
 72
     1
  1
440 [17 3/8]
 73
     1
 44
1.0
  0
POINT
  5
12D
330
126
100
AcDbEntity
  8
Defpoints
 62
     0
100
AcDbPoint
 10
225.7775138688246
 20
382.4084569878497
 30
0.0
  0
POINT
  5
12E
330
126
100
AcDbEntity
  8
Defpoints
 62
     0
100
AcDbPoint
 10
665.777510970807
 20
382.4084569878497
 30
0.0
  0
POINT
  5
12F
330
126
100
AcDbEntity
  8
Defpoints
 62
     0
100
AcDbPoint
 10
665.777510970807
 20
388.7238466976906
 30
0.0
  0
ENDBLK
  5
131
330
126
100
AcDbEntity
  8
0
100
AcDbBlockEnd
  0
BLOCK
  5
143
330
139
100
AcDbEntity
  8
0
100
AcDbBlockBegin
  2
*D8
 70
     1
 10
0.0
 20
0.0
 30
0.0
  3
*D8
  1

  0
LINE
  5
13A
330
139
100
AcDbEntity
  8
0
 62
     0
370
    -2
100
AcDbLine
 10
699.6891777994502
 20
352.9628372153128
 30
0.0
 11
710.9575694584215
 21
352.9628372153128
 31
0.0
  0
LINE
  5
13B
330
139
100
AcDbEntity
  8
0
 62
     0
370
    -2
100
AcDbLine
 10
699.2725111327835
 20
-11.02411881321161
 30
0.0
 11
710.9575694584212
 21
-11.02411881321161
 31
0.0
  0
LINE
  5
13C
330
139
100
AcDbEntity
  8
0
 62
     0
370
    -2
100
AcDbLine
 10
709.7075694584215
 20
350.4628372153129
 30
0.0
 11
709.7075694584212
 21
-8.524118813211616
 31
0.0
  0
SOLID
  5
13D
330
139
100
AcDbEntity
  8
0
 62
     0
100
AcDbTrace
 10
709.2909027917547
 20
350.4628372153129
 30
0.0
 11
710.1242361250881
 21
350.4628372153129
 31
0.0
 12
709.7075694584215
 22
352.9628372153128
 32
0.0
 13
709.7075694584215
 23
352.9628372153128
 33
0.0
  0
SOLID
  5
13E
330
139
100
AcDbEntity
  8
0
 62
     0
100
AcDbTrace
 10
709.2909027917547
 20
-8.524118813211616
 30
0.0
 11
710.124236125088
 21
-8.524118813211616
 31
0.0
 12
709.7075694584212
 22
-11.02411881321161
 32
0.0
 13
709.7075694584212
 23
-11.02411881321161
 33
0.0
  0
MTEXT
  5
13F
330
139
100
AcDbEntity
  8
0
 62
     0
100
AcDbMText
 10
707.1778075536592
 20
170.9693592010506
 30
0.0
 40
2.5
 41
0.0
 71
     5
 72
     1
  1
363.99 [14 3/8]
 11
0.0000000000000001
 21
1.0
 31
0.0
 73
     1
 44
1.0
  0
POINT
  5
140
330
139
100
AcDbEntity
  8
Defpoints
 62
     0
100
AcDbPoint
 10
699.0641777994502
 20
352.9628372153128
 30
0.0
  0
POINT
  5
141
330
139
100
AcDbEntity
  8
Defpoints
 62
     0
100
AcDbPoint
 10
698.6475111327835
 20
-11.02411881321161
 30
0.0
  0
POINT
  5
142
330
139
100
AcDbEntity
  8
Defpoints
 62
     0
100
AcDbPoint
 10
709.7075694584212
 20
-11.02411881321161
 30
0.0
  0
ENDBLK
  5
144
330
139
100
AcDbEntity
  8
0
100
AcDbBlockEnd
  0
BLOCK
  5
164
330
15A
100
AcDbEntity
  8
0
100
AcDbBlockBegin
  2
*D9
 70
     1
 10
0.0
 20
0.0
 30
0.0
  3
*D9
  1

  0
LINE
  5
167
330
15A
100
AcDbEntity
  8
0
 62
     0
370
    -2
100
AcDbLine
 10
437.1594243118364
 20
78.07206053968686
 30
0.0
 11
436.5344243118363
 21
78.07206053968686
 31
0.0
  0
LINE
  5
168
330
15A
100
AcDbEntity
  8
0
 62
     0
370
    -2
100
AcDbLine
 10
437.1594243118364
 20
-0.3994551184276529
 30
0.0
 11
436.5344243118363
 21
-0.3994551184276528
 31
0.0
  0
LINE
  5
169
330
15A
100
AcDbEntity
  8
0
 62
     0
370
    -2
100
AcDbLine
 10
437.7844243118365
 20
75.57206053968686
 30
0.0
 11
437.7844243118365
 21
2.100544881572345
 31
0.0
  0
SOLID
  5
16A
330
15A
100
AcDbEntity
  8
0
 62
     0
100
AcDbTrace
 10
437.3677576451695
 20
75.57206053968686
 30
0.0
 11
438.201090978503
 21
75.57206053968686
 31
0.0
 12
437.7844243118365
 22
78.07206053968686
 32
0.0
 13
437.7844243118365
 23
78.07206053968686
 33
0.0
  0
SOLID
  5
16B
330
15A
100
AcDbEntity
  8
0
 62
     0
100
AcDbTrace
 10
437.3677576451695
 20
2.100544881572345
 30
0.0
 11
438.201090978503
 21
2.100544881572345
 31
0.0
 12
437.7844243118365
 22
-0.3994551184276531
 32
0.0
 13
437.7844243118365
 23
-0.3994551184276531
 33
0.0
  0
MTEXT
  5
16C
330
15A
100
AcDbEntity
  8
0
 62
     0
100
AcDbMText
 10
435.2546624070745
 20
38.83630271062968
 30
0.0
 40
2.5
 41
0.0
 71
     5
 72
     1
  1
78.47 [3 1/8]
 11
0.0000000000000001
 21
1.0
 31
0.0
 73
     1
 44
1.0
  0
POINT
  5
16D
330
15A
100
AcDbEntity
  8
Defpoints
 62
     0
100
AcDbPoint
 10
437.7844243118365
 20
78.07206053968686
 30
0.0
  0
POINT
  5
16E
330
15A
100
AcDbEntity
  8
Defpoints
 62
     0
100
AcDbPoint
 10
437.7844243118365
 20
-0.3994551184276531
 30
0.0
  0
POINT
  5
16F
330
15A
100
AcDbEntity
  8
Defpoints
 62
     0
100
AcDbPoint
 10
437.7844243118365
 20
-0.3994551184276531
 30
0.0
  0
ENDBLK
  5
165
330
15A
100
AcDbEntity
  8
0
100
AcDbBlockEnd
  0
BLOCK
  5
186
330
17C
100
AcDbEntity
  8
0
100
AcDbBlockBegin
  2
*D10
 70
     1
 10
0.0
 20
0.0
 30
0.0
  3
*D10
  1

  0
LINE
  5
189
330
17C
100
AcDbEntity
  8
0
 62
     0
370
    -2
100
AcDbLine
 10
443.6228637847788
 20
342.4605797461792
 30
0.0
 11
686.2752998288835
 21
342.4605797461791
 31
0.0
  0
LINE
  5
18A
330
17C
100
AcDbEntity
  8
0
 62
     0
370
    -2
100
AcDbLine
 10
443.4986238060146
 20
-0.5275292529229746
 30
0.0
 11
686.2752998288832
 21
-0.5275292529230434
 31
0.0
  0
LINE
  5
18B
330
17C
100
AcDbEntity
  8
0
 62
     0
370
    -2
100
AcDbLine
 10
685.0252998288834
 20
339.9605797461791
 30
0.0
 11
685.0252998288834
 21
1.972470747076956
 31
0.0
  0
SOLID
  5
18C
330
17C
100
AcDbEntity
  8
0
 62
     0
100
AcDbTrace
 10
684.6086331622167
 20
339.9605797461791
 30
0.0
 11
685.4419664955501
 21
339.9605797461791
 31
0.0
 12
685.0252998288834
 22
342.4605797461791
 32
0.0
 13
685.0252998288834
 23
342.4605797461791
 33
0.0
  0
SOLID
  5
18D
330
17C
100
AcDbEntity
  8
0
 62
     0
100
AcDbTrace
 10
684.6086331622167
 20
1.972470747076956
 30
0.0
 11
685.44196649555
 21
1.972470747076956
 31
0.0
 12
685.0252998288834
 22
-0.5275292529230431
 32
0.0
 13
685.0252998288834
 23
-0.5275292529230431
 33
0.0
  0
MTEXT
  5
18E
330
17C
100
AcDbEntity
  8
0
 62
     0
100
AcDbMText
 10
682.4955379241214
 20
170.9665252466282
 30
0.0
 40
2.5
 41
0.0
 71
     5
 72
     1
  1
342.99 [13 1/2]
 11
0.0000000000000001
 21
1.0
 31
0.0
 73
     1
 44
1.0
  0
POINT
  5
18F
330
17C
100
AcDbEntity
  8
Defpoints
 62
     0
100
AcDbPoint
 10
442.9978637847789
 20
342.4605797461792
 30
0.0
  0
POINT
  5
190
330
17C
100
AcDbEntity
  8
Defpoints
 62
     0
100
AcDbPoint
 10
442.8736238060146
 20
-0.5275292529229745
 30
0.0
  0
POINT
  5
191
330
17C
100
AcDbEntity
  8
Defpoints
 62
     0
100
AcDbPoint
 10
685.0252998288834
 20
-0.5275292529230431
 30
0.0
  0
ENDBLK
  5
187
330
17C
100
AcDbEntity
  8
0
100
AcDbBlockEnd
  0
BLOCK
  5
1A9
330
19F
100
AcDbEntity
  8
0
100
AcDbBlockBegin
  2
*D11
 70
     1
 10
0.0
 20
0.0
 30
0.0
  3
*D11
  1

  0
LINE
  5
1AC
330
19F
100
AcDbEntity
  8
0
 62
     0
370
    -2
100
AcDbLine
 10
445.7775124198158
 20
171.600675895089
 30
0.0
 11
445.7775124198158
 21
365.2248544792418
 31
0.0
  0
LINE
  5
1AD
330
19F
100
AcDbEntity
  8
0
 62
     0
370
    -2
100
AcDbLine
 10
236.2777967068687
 20
171.600675895089
 30
0.0
 11
236.2777967068687
 21
365.2248544792418
 31
0.0
  0
LINE
  5
1AE
330
19F
100
AcDbEntity
  8
0
 62
     0
370
    -2
100
AcDbLine
 10
443.2775124198157
 20
363.9748544792417
 30
0.0
 11
238.7777967068687
 21
363.9748544792417
 31
0.0
  0
SOLID
  5
1AF
330
19F
100
AcDbEntity
  8
0
 62
     0
100
AcDbTrace
 10
443.2775124198157
 20
364.3915211459084
 30
0.0
 11
443.2775124198157
 21
363.558187812575
 31
0.0
 12
445.7775124198158
 22
363.9748544792417
 32
0.0
 13
445.7775124198158
 23
363.9748544792417
 33
0.0
  0
SOLID
  5
1B0
330
19F
100
AcDbEntity
  8
0
 62
     0
100
AcDbTrace
 10
238.7777967068687
 20
364.3915211459084
 30
0.0
 11
238.7777967068687
 21
363.558187812575
 31
0.0
 12
236.2777967068687
 22
363.9748544792417
 32
0.0
 13
236.2777967068687
 23
363.9748544792417
 33
0.0
  0
MTEXT
  5
1B1
330
19F
100
AcDbEntity
  8
0
 62
     0
100
AcDbMText
 10
341.0276545633422
 20
366.5046163840036
 30
0.0
 40
2.5
 41
0.0
 71
     5
 72
     1
  1
209.5 [8 1/4]
 73
     1
 44
1.0
  0
POINT
  5
1B2
330
19F
100
AcDbEntity
  8
Defpoints
 62
     0
100
AcDbPoint
 10
445.7775124198158
 20
170.975675895089
 30
0.0
  0
POINT
  5
1B3
330
19F
100
AcDbEntity
  8
Defpoints
 62
     0
100
AcDbPoint
 10
236.2777967068687
 20
170.975675895089
 30
0.0
  0
POINT
  5
1B4
330
19F
100
AcDbEntity
  8
Defpoints
 62
     0
100
AcDbPoint
 10
236.2777967068687
 20
363.9748544792417
 30
0.0
  0
ENDBLK
  5
1AA
330
19F
100
AcDbEntity
  8
0
100
AcDbBlockEnd
  0
BLOCK
  5
1C1
330
1B7
100
AcDbEntity
  8
0
100
AcDbBlockBegin
  2
*D12
 70
     1
 10
0.0
 20
0.0
 30
0.0
  3
*D12
  1

  0
LINE
  5
1B8
330
1B7
100
AcDbEntity
  8
0
 62
     0
370
    -2
100
AcDbLine
 10
445.7775124198158
 20
172.225675895089
 30
0.0
 11
445.7775124198158
 21
365.2248544792418
 31
0.0
  0
LINE
  5
1B9
330
1B7
100
AcDbEntity
  8
0
 62
     0
370
    -2
100
AcDbLine
 10
655.2758369420487
 20
172.225675895089
 30
0.0
 11
655.2758369420487
 21
365.2248544792418
 31
0.0
  0
LINE
  5
1BA
330
1B7
100
AcDbEntity
  8
0
 62
     0
370
    -2
100
AcDbLine
 10
448.2775124198158
 20
363.9748544792417
 30
0.0
 11
652.7758369420487
 21
363.9748544792417
 31
0.0
  0
SOLID
  5
1BB
330
1B7
100
AcDbEntity
  8
0
 62
     0
100
AcDbTrace
 10
448.2775124198158
 20
364.3915211459084
 30
0.0
 11
448.2775124198158
 21
363.558187812575
 31
0.0
 12
445.7775124198158
 22
363.9748544792417
 32
0.0
 13
445.7775124198158
 23
363.9748544792417
 33
0.0
  0
SOLID
  5
1BC
330
1B7
100
AcDbEntity
  8
0
 62
     0
100
AcDbTrace
 10
652.7758369420487
 20
364.3915211459084
 30
0.0
 11
652.7758369420487
 21
363.558187812575
 31
0.0
 12
655.2758369420487
 22
363.9748544792417
 32
0.0
 13
655.2758369420487
 23
363.9748544792417
 33
0.0
  0
MTEXT
  5
1BD
330
1B7
100
AcDbEntity
  8
0
 62
     0
100
AcDbMText
 10
550.5266746809321
 20
366.5046163840036
 30
0.0
 40
2.5
 41
0.0
 71
     5
 72
     1
  1
209.5 [8 1/4]
 73
     1
 44
1.0
  0
POINT
  5
1BE
330
1B7
100
AcDbEntity
  8
Defpoints
 62
     0
100
AcDbPoint
 10
445.7775124198158
 20
171.600675895089
 30
0.0
  0
POINT
  5
1BF
330
1B7
100
AcDbEntity
  8
Defpoints
 62
     0
100
AcDbPoint
 10
655.2758369420487
 20
171.600675895089
 30
0.0
  0
POINT
  5
1C0
330
1B7
100
AcDbEntity
  8
Defpoints
 62
     0
100
AcDbPoint
 10
655.2758369420487
 20
363.9748544792417
 30
0.0
  0
ENDBLK
  5
1C2
330
1B7
100
AcDbEntity
  8
0
100
AcDbBlockEnd
  0
BLOCK
  5
1DA
330
1D0
100
AcDbEntity
  8
0
100
AcDbBlockBegin
  2
*D13
 70
     1
 10
0.0
 20
0.0
 30
0.0
  3
*D13
  1

  0
LINE
  5
1D1
330
1D0
100
AcDbEntity
  8
0
 62
     0
370
    -2
100
AcDbLine
 10
236.2777967068687
 20
364.5998544792417
 30
0.0
 11
236.2777967068687
 21
365.6415211459084
 31
0.0
  0
LINE
  5
1D2
330
1D0
100
AcDbEntity
  8
0
 62
     0
370
    -2
100
AcDbLine
 10
655.2758369420487
 20
364.5998544792417
 30
0.0
 11
655.2758369420487
 21
365.6415211459084
 31
0.0
  0
LINE
  5
1D3
330
1D0
100
AcDbEntity
  8
0
 62
     0
370
    -2
100
AcDbLine
 10
238.7777967068687
 20
364.3915211459084
 30
0.0
 11
652.7758369420487
 21
364.3915211459084
 31
0.0
  0
SOLID
  5
1D4
330
1D0
100
AcDbEntity
  8
0
 62
     0
100
AcDbTrace
 10
238.7777967068687
 20
364.8081878125752
 30
0.0
 11
238.7777967068687
 21
363.9748544792417
 31
0.0
 12
236.2777967068687
 22
364.3915211459084
 32
0.0
 13
236.2777967068687
 23
364.3915211459084
 33
0.0
  0
SOLID
  5
1D5
330
1D0
100
AcDbEntity
  8
0
 62
     0
100
AcDbTrace
 10
652.7758369420487
 20
364.8081878125752
 30
0.0
 11
652.7758369420487
 21
363.9748544792417
 31
0.0
 12
655.2758369420487
 22
364.3915211459084
 32
0.0
 13
655.2758369420487
 23
364.3915211459084
 33
0.0
  0
MTEXT
  5
1D6
330
1D0
100
AcDbEntity
  8
0
 62
     0
100
AcDbMText
 10
445.7768168244585
 20
366.9212830506703
 30
0.0
 40
2.5
 41
0.0
 71
     5
 72
     1
  1
419 [16 1/2]
 73
     1
 44
1.0
  0
POINT
  5
1D7
330
1D0
100
AcDbEntity
  8
Defpoints
 62
     0
100
AcDbPoint
 10
236.2777967068687
 20
363.9748544792417
 30
0.0
  0
POINT
  5
1D8
330
1D0
100
AcDbEntity
  8
Defpoints
 62
     0
100
AcDbPoint
 10
655.2758369420487
 20
363.9748544792417
 30
0.0
  0
POINT
  5
1D9
330
1D0
100
AcDbEntity
  8
Defpoints
 62
     0
100
AcDbPoint
 10
655.2758369420487
 20
364.3915211459084
 30
0.0
  0
ENDBLK
  5
1DB
330
1D0
100
AcDbEntity
  8
0
100
AcDbBlockEnd
  0
ENDSEC
  0
SECTION
  2
ENTITIES
  0
ELLIPSE
  5
2D
330
21
100
AcDbEntity
  8
0
  6
ACAD_ISO02W100
 62
     1
100
AcDbEllipse
 10
445.7775124198158
 20
170.975675895089
 30
0.0
 11
209.4997157129471
 21
0.0
 31
0.0
210
0.0
220
0.0
230
1.0
 40
0.8186168626356817
 41
-1.570796326794896
 42
4.712388980384688
  0
SOLID
  5
88
330
21
100
AcDbEntity
  8
0
100
AcDbTrace
 10
332.5425645435229
 20
121.4897333674225
 30
0.0
 11
332.6025645435229
 21
121.4897333674225
 31
0.0
 12
332.5725645435229
 22
121.3097333674225
 32
0.0
 13
332.5725645435229
 23
121.3097333674225
 33
0.0
  0
LINE
  5
89
330
21
100
AcDbEntity
  8
0
100
AcDbLine
 10
332.5725645435229
 20
121.4897333674225
 30
0.0
 11
332.5725645435229
 21
122.9383084397068
 31
0.0
  0
LINE
  5
8A
330
21
100
AcDbEntity
  8
0
100
AcDbLine
 10
332.5725645435229
 20
125.0468835119911
 30
0.0
 11
332.5725645435229
 21
122.6852409611558
 31
0.0
  0
LINE
  5
8B
330
21
100
AcDbEntity
  8
0
100
AcDbLine
 10
332.5100645435228
 20
121.3097333674225
 30
0.0
 11
332.3925645435229
 21
121.3097333674225
 31
0.0
  0
MTEXT
  5
8C
330
21
100
AcDbEntity
  8
0
 62
     1
100
AcDbMText
 10
329.1313359556492
 20
132.7102451415233
 30
0.0
 40
5.0
 41
316.5774964455378
 71
     1
 72
     5
  1
Use full template for a flush mount cut\P(Sink is flushed to the edge of counter top opening)
 73
     1
 44
1.0
  0
MTEXT
  5
8D
330
21
100
AcDbEntity
  8
0
 62
     1
100
AcDbMText
 10
329.661352639235
 20
109.6767578541421
 30
0.0
 40
5.0
 41
316.1135419359495
 71
     1
 72
     5
  1
{\fArial|b1|i0|c0|p34;Use outside line for reveal mount cut:\fArial|b0|i0|c0|p34;\PSink rim is 1/4" revealed from the coutnertop opening.}
 73
     1
 44
1.0
  0
LINE
  5
BA
330
21
100
AcDbEntity
  8
0
 62
     1
370
    30
100
AcDbLine
 10
437.7844243118365
 20
-0.3994551184276549
 30
0.0
 11
437.7844243118365
 21
78.07206053968686
 31
0.0
  0
LINE
  5
172
330
21
100
AcDbEntity
  8
0
100
AcDbLine
 10
437.1594243118364
 20
-0.3994551184276529
 30
0.0
 11
436.5344243118363
 21
-0.3994551184276528
 31
0.0
  0
LINE
  5
173
330
21
100
AcDbEntity
  8
0
 62
     1
100
AcDbLine
 10
437.7844243118365
 20
75.57206053968686
 30
0.0
 11
437.7844243118365
 21
2.100544881572345
 31
0.0
  0
SOLID
  5
175
330
21
100
AcDbEntity
  8
0
100
AcDbTrace
 10
437.3677576451695
 20
2.100544881572345
 30
0.0
 11
438.201090978503
 21
2.100544881572345
 31
0.0
 12
437.7844243118365
 22
-0.3994551184276531
 32
0.0
 13
437.7844243118365
 23
-0.3994551184276531
 33
0.0
  0
MTEXT
  5
176
330
21
100
AcDbEntity
  8
0
 62
     1
100
AcDbMText
 10
435.2546624070745
 20
38.83630271062968
 30
0.0
 40
2.5
 41
0.0
 71
     5
 72
     1
  1
78.47 [3 1/8]
 11
0.0000000000000001
 21
1.0
 31
0.0
 73
     1
 44
1.0
  0
LINE
  5
196
330
21
100
AcDbEntity
  8
0
100
AcDbLine
 10
697.3182854245973
 20
339.9605797461791
 30
0.0
 11
697.3182854245973
 21
1.972470747076954
 31
0.0
  0
SOLID
  5
197
330
21
100
AcDbEntity
  8
0
100
AcDbTrace
 10
696.9016187579308
 20
339.9605797461791
 30
0.0
 11
697.734952091264
 21
339.9605797461791
 31
0.0
 12
697.3182854245973
 22
342.4605797461791
 32
0.0
 13
697.3182854245973
 23
342.4605797461791
 33
0.0
  0
SOLID
  5
198
330
21
100
AcDbEntity
  8
0
100
AcDbTrace
 10
696.9016187579304
 20
1.972470747076954
 30
0.0
 11
697.7349520912637
 21
1.972470747076954
 31
0.0
 12
697.3182854245973
 22
-0.5275292529230457
 32
0.0
 13
697.3182854245973
 23
-0.5275292529230457
 33
0.0
  0
MTEXT
  5
199
330
21
100
AcDbEntity
  8
0
100
AcDbMText
 10
686.0497152951928
 20
169.2115898540689
 30
0.0
 40
2.5
 41
0.0
 71
     5
 72
     1
  1
{\H3.2x;343 [13 1/2]}
 11
0.0000000000000001
 21
1.0
 31
0.0
 73
     1
 44
1.0
  0
LINE
  5
19B
330
21
100
AcDbEntity
  8
0
100
AcDbLine
 10
445.7775124198158
 20
170.975675895089
 30
0.0
 11
445.7775124198158
 21
170.975675895089
 31
0.0
  0
LINE
  5
19C
330
21
100
AcDbEntity
  8
0
100
AcDbLine
 10
445.7775124198158
 20
170.975675895089
 30
0.0
 11
445.7775124198158
 21
170.975675895089
 31
0.0
  0
LINE
  5
19D
330
21
100
AcDbEntity
  8
0
100
AcDbLine
 10
445.7775124198158
 20
170.975675895089
 30
0.0
 11
445.7775124198158
 21
170.975675895089
 31
0.0
  0
LINE
  5
1C5
330
21
100
AcDbEntity
  8
0
100
AcDbLine
 10
443.2775124198157
 20
363.9748544792417
 30
0.0
 11
238.7777967068687
 21
363.9748544792417
 31
0.0
  0
SOLID
  5
1C6
330
21
100
AcDbEntity
  8
0
100
AcDbTrace
 10
443.2775124198157
 20
364.3915211459084
 30
0.0
 11
443.2775124198157
 21
363.558187812575
 31
0.0
 12
445.7775124198158
 22
363.9748544792417
 32
0.0
 13
445.7775124198158
 23
363.9748544792417
 33
0.0
  0
SOLID
  5
1C7
330
21
100
AcDbEntity
  8
0
100
AcDbTrace
 10
238.7777967068687
 20
364.3915211459084
 30
0.0
 11
238.7777967068687
 21
363.558187812575
 31
0.0
 12
236.2777967068687
 22
363.9748544792417
 32
0.0
 13
236.2777967068687
 23
363.9748544792417
 33
0.0
  0
LINE
  5
1CB
330
21
100
AcDbEntity
  8
0
100
AcDbLine
 10
448.2775124198158
 20
363.9748544792417
 30
0.0
 11
652.7758369420487
 21
363.9748544792417
 31
0.0
  0
SOLID
  5
1CC
330
21
100
AcDbEntity
  8
0
100
AcDbTrace
 10
448.2775124198158
 20
364.3915211459084
 30
0.0
 11
448.2775124198158
 21
363.558187812575
 31
0.0
 12
445.7775124198158
 22
363.9748544792417
 32
0.0
 13
445.7775124198158
 23
363.9748544792417
 33
0.0
  0
SOLID
  5
1CD
330
21
100
AcDbEntity
  8
0
100
AcDbTrace
 10
652.7758369420487
 20
364.3915211459084
 30
0.0
 11
652.7758369420487
 21
363.558187812575
 31
0.0
 12
655.2758369420487
 22
363.9748544792417
 32
0.0
 13
655.2758369420487
 23
363.9748544792417
 33
0.0
  0
LINE
  5
1DC
330
21
100
AcDbEntity
  8
0
100
AcDbLine
 10
236.2777967068687
 20
364.5998544792417
 30
0.0
 11
236.2777967068687
 21
365.6415211459084
 31
0.0
  0
LINE
  5
1DD
330
21
100
AcDbEntity
  8
0
100
AcDbLine
 10
655.2758369420487
 20
364.5998544792417
 30
0.0
 11
655.2758369420487
 21
365.6415211459084
 31
0.0
  0
LINE
  5
1DE
330
21
100
AcDbEntity
  8
0
100
AcDbLine
 10
238.7777967068687
 20
364.3915211459084
 30
0.0
 11
652.7758369420487
 21
364.3915211459084
 31
0.0
  0
SOLID
  5
1DF
330
21
100
AcDbEntity
  8
0
100
AcDbTrace
 10
238.7777967068687
 20
364.8081878125752
 30
0.0
 11
238.7777967068687
 21
363.9748544792417
 31
0.0
 12
236.2777967068687
 22
364.3915211459084
 32
0.0
 13
236.2777967068687
 23
364.3915211459084
 33
0.0
  0
SOLID
  5
1E0
330
21
100
AcDbEntity
  8
0
100
AcDbTrace
 10
652.7758369420487
 20
364.8081878125752
 30
0.0
 11
652.7758369420487
 21
363.9748544792417
 31
0.0
 12
655.2758369420487
 22
364.3915211459084
 32
0.0
 13
655.2758369420487
 23
364.3915211459084
 33
0.0
  0
MTEXT
  5
1E1
330
21
100
AcDbEntity
  8
0
100
AcDbMText
 10
446.1652795717705
 20
377.4932152346892
 30
0.0
 40
8.0
 41
0.0
 71
     5
 72
     1
  1
419 [16 1/2]
 73
     1
 44
1.0
  0
SPLINE
  5
1F4
330
21
100
AcDbEntity
  8
0
 62
     3
100
AcDbSpline
210
0.0
220
0.0
230
1.0
 70
    11
 71
     3
 72
    80
 73
    76
 74
     0
 42
0.0000000001
 43
0.0000000001
 40
-1.570796326794896
 40
-1.570796326794896
 40
-1.570796326794896
 40
-1.570796326794896
 40
-1.46883455945275
 40
-1.46883455945275
 40
-1.264911024768459
 40
-1.264911024768459
 40
-1.06098749008417
 40
-1.06098749008417
 40
-0.9003631804296114
 40
-0.9003631804296114
 40
-0.7397388707750523
 40
-0.7397388707750523
 40
-0.5688126185113207
 40
-0.5688126185113207
 40
-0.3949018857194283
 40
-0.3949018857194283
 40
-0.2210654432824798
 40
-0.2210654432824798
 40
-0.0481211525543927
 40
-0.0481211525543927
 40
0.1248231381736944
 40
0.1248231381736944
 40
0.2977674289017815
 40
0.2977674289017815
 40
0.4707117196298686
 40
0.4707117196298686
 40
0.6436560103579559
 40
0.6436560103579559
 40
0.8166003010860427
 40
0.8166003010860427
 40
0.9895445918141298
 40
0.9895445918141298
 40
1.162488882542217
 40
1.162488882542217
 40
1.335433173270303
 40
1.335433173270303
 40
1.50837746399839
 40
1.50837746399839
 40
1.681321754726478
 40
1.681321754726478
 40
1.854266045454565
 40
1.854266045454565
 40
2.027210336182651
 40
2.027210336182651
 40
2.200154626910739
 40
2.200154626910739
 40
2.373098917638825
 40
2.373098917638825
 40
2.546043208366914
 40
2.546043208366914
 40
2.718987499095001
 40
2.718987499095001
 40
2.891931789823087
 40
2.891931789823087
 40
3.064876080551174
 40
3.064876080551174
 40
3.237820371279261
 40
3.237820371279261
 40
3.410764662007348
 40
3.410764662007348
 40
3.585283669899673
 40
3.585283669899673
 40
3.759990181813963
 40
3.759990181813963
 40
3.937161634638816
 40
3.937161634638816
 40
4.112866881843252
 40
4.112866881843252
 40
4.288572129047685
 40
4.288572129047685
 40
4.464277376252119
 40
4.464277376252119
 40
4.639982623456551
 40
4.639982623456551
 40
4.712388980384688
 40
4.712388980384688
 40
4.712388980384688
 40
4.712388980384688
 10
445.7775124198156
 20
-9.524118813211536
 30
0.0
 10
453.2124384212393
 20
-9.524118813211536
 30
0.0
 10
460.6476354991488
 20
-9.21026141126924
 30
0.0
 10
482.83595459244
 20
-7.332165586288573
 30
0.0
 10
497.4726387954111
 20
-4.828404218710371
 30
0.0
 10
525.8242449693433
 20
2.579461768473483
 30
0.0
 10
539.5400498145647
 20
7.481415866537492
 30
0.0
 10
562.7256323165741
 20
18.20665275884399
 30
0.0
 10
572.4802554695501
 20
23.61022266232571
 30
0.0
 10
590.8119829267998
 20
35.63675690884635
 30
0.0
 10
599.3915438757539
 20
42.25819043553742
 30
0.0
 10
615.6575643589079
 20
57.00363361225004
 30
0.0
 10
623.2541461898813
 20
65.19786289859067
 30
0.0
 10
636.7621193652003
 20
82.67740617402571
 30
0.0
 10
642.6432703936162
 20
91.98205521984702
 30
0.0
 10
652.3656480460557
 20
111.2781408612716
 30
0.0
 10
656.2075099642706
 20
121.2724006666204
 30
0.0
 10
661.730515287015
 20
141.5995678969101
 30
0.0
 10
663.4207190057674
 20
151.9331666040908
 30
0.0
 10
664.629780706517
 20
172.6836632354038
 30
0.0
 10
664.1453341794854
 20
183.1021513794899
 30
0.0
 10
661.0197757549538
 20
203.717428617448
 30
0.0
 10
658.3747965476889
 20
213.9142677337598
 30
0.0
 10
651.0041080838175
 20
233.7865461424318
 30
0.0
 10
646.2748312583868
 20
243.4605920697849
 30
0.0
 10
634.8721617708987
 20
262.0003852555792
 30
0.0
 10
628.1960883222337
 20
270.8637755465967
 30
0.0
 10
613.0948724729162
 20
287.5169012589462
 30
0.0
 10
604.6681701274279
 20
295.3038667901055
 30
0.0
 10
586.3143177572001
 20
309.5693215747375
 30
0.0
 10
576.3867350753247
 20
316.0450770190116
 30
0.0
 10
555.3260226627777
 20
327.49187615003
 30
0.0
 10
544.1934723764634
 20
332.4605664478049
 30
0.0
 10
521.0549468794868
 20
340.7421050286359
 30
0.0
 10
509.0503576298892
 20
344.0532487371956
 30
0.0
 10
484.5268655235238
 20
348.9185241207219
 30
0.0
 10
472.0098691325451
 20
350.4717923025425
 30
0.0
 10
446.8366659652807
 20
351.7733015976578
 30
0.0
 10
434.1825425559296
 20
351.5216199645316
 30
0.0
 10
409.1147375408505
 20
349.2199094808087
 30
0.0
 10
396.7029520278325
 20
347.1708927544347
 30
0.0
 10
372.4924311103464
 20
341.3357632840407
 30
0.0
 10
360.6950624979654
 20
337.5514849708457
 30
0.0
 10
338.0674956390858
 20
328.3598544782955
 30
0.0
 10
327.2378549237034
 20
322.9549512937002
 30
0.0
 10
306.8703986131217
 20
310.6853729570171
 30
0.0
 10
297.3321422913906
 20
303.8234781593609
 30
0.0
 10
279.8325018562611
 20
288.8473123872176
 30
0.0
 10
271.869593879138
 20
280.7358090064623
 30
0.0
 10
257.757246308118
 20
263.505096898822
 30
0.0
 10
251.6052312586201
 20
254.3882282619447
 30
0.0
 10
241.2958223312273
 20
235.4205419800332
 30
0.0
 10
237.1350096586831
 20
225.5711333908045
 30
0.0
 10
230.9290296259649
 20
205.4322547015653
 30
0.0
 10
228.880112063495
 20
195.1427528736435
 30
0.0
 10
226.9564399639508
 20
174.4288379830811
 30
0.0
 10
227.0784610655274
 20
164.0027148934658
 30
0.0
 10
229.4919759671405
 20
143.323779165725
 30
0.0
 10
231.7817278034519
 20
133.067881774201
 30
0.0
 10
238.4934045309889
 20
112.9417554824821
 30
0.0
 10
242.9349277345113
 20
103.0722199370937
 30
0.0
 10
253.8309324436814
 20
84.10713134018493
 30
0.0
 10
260.2896913430002
 20
75.00938066100781
 30
0.0
 10
275.1281624936706
 20
57.75563346235282
 30
0.0
 10
283.5366872916891
 20
49.61325368561515
 30
0.0
 10
301.8848873126231
 20
34.73925830585815
 30
0.0
 10
311.8142141267432
 20
27.99632212567209
 30
0.0
 10
332.9484788670165
 20
16.04648214573854
 30
0.0
 10
344.1560988200935
 20
10.84052423695925
 30
0.0
 10
367.5015216487168
 20
2.126434656486063
 30
0.0
 10
379.6414500210158
 20
-1.379840855463295
 30
0.0
 10
404.4767970715255
 20
-6.585585878943521
 30
0.0
 10
417.1735737906535
 20
-8.282556251546182
 30
0.0
 10
435.2179202313358
 20
-9.36596373516901
 30
0.0
 10
440.4977304012583
 20
-9.524118813211536
 30
0.0
 10
445.7775124198156
 20
-9.524118813211536
 30
0.0
  0
MTEXT
  5
1FD
330
21
100
AcDbEntity
  8
0
 62
     1
100
AcDbMText
 10
329.4713831050776
 20
88.88663963015551
 30
0.0
 40
8.0
 41
305.7185185185185
 71
     1
 72
     5
  1
VERIFY ALL MEASUREMENTS BEFORE CUTTING. NOT LIABLE FOR ACCURACY OF THIS DXF.
 73
     1
 44
1.0
  0
ENDSEC
  0
SECTION
  2
OBJECTS
  0
DICTIONARY
  5
C
330
0
100
AcDbDictionary
281
     1
  3
ACAD_COLOR
350
1C
  3
ACAD_GROUP
350
D
  3
ACAD_LAYOUT
350
1A
  3
ACAD_MATERIAL
350
1B
  3
ACAD_MLINESTYLE
350
17
  3
ACAD_PLOTSETTINGS
350
19
  3
ACAD_PLOTSTYLENAME
350
E
  0
DICTIONARY
  5
78
330
2
100
AcDbDictionary
280
     1
281
     1
  3
ACAD_LAYERSTATES
360
79
  0
DICTIONARY
  5
1C
102
{ACAD_REACTORS
330
C
102
}
330
C
100
AcDbDictionary
281
     1
  0
DICTIONARY
  5
D
102
{ACAD_REACTORS
330
C
102
}
330
C
100
AcDbDictionary
281
     1
  0
DICTIONARY
  5
1A
102
{ACAD_REACTORS
330
C
102
}
330
C
100
AcDbDictionary
281
     1
  3
Model
350
24
  3
布局1
350
20
  3
布局2
350
28
  0
DICTIONARY
  5
1B
102
{ACAD_REACTORS
330
C
102
}
330
C
100
AcDbDictionary
281
     1
  0
DICTIONARY
  5
17
102
{ACAD_REACTORS
330
C
102
}
330
C
100
AcDbDictionary
281
     1
  3
Standard
350
18
  0
DICTIONARY
  5
19
102
{ACAD_REACTORS
330
C
102
}
330
C
100
AcDbDictionary
281
     1
  0
ACDBDICTIONARYWDFLT
  5
E
102
{ACAD_REACTORS
330
C
102
}
330
C
100
AcDbDictionary
281
     1
  3
Normal
350
F
100
AcDbDictionaryWithDefault
340
F
  0
DICTIONARY
  5
79
102
{ACAD_REACTORS
330
78
102
}
330
78
100
AcDbDictionary
281
     1
  0
LAYOUT
  5
24
102
{ACAD_REACTORS
330
1A
102
}
330
1A
100
AcDbPlotSettings
  1

  2
\\ALISE-4F2ADA9D7\Canon MP250 series Printer
  4

  6

 40
0.0
 41
0.0
 42
0.0
 43
0.0
 44
0.0
 45
0.0
 46
0.0
 47
0.0
 48
0.0
 49
0.0
140
0.0
141
0.0
142
1.0
143
1.0
 70
  1712
 72
     0
 73
     0
 74
     0
  7

 75
     0
147
1.0
 76
     0
 77
     2
 78
   300
148
0.0
149
0.0
100
AcDbLayout
  1
Model
 70
     1
 71
     0
 10
0.0
 20
0.0
 11
12.0
 21
9.0
 12
0.0
 22
0.0
 32
0.0
 14
0.0
 24
0.0
 34
0.0
 15
0.0
 25
0.0
 35
0.0
146
0.0
 13
0.0
 23
0.0
 33
0.0
 16
1.0
 26
0.0
 36
0.0
 17
0.0
 27
1.0
 37
0.0
 76
     0
330
21
  0
LAYOUT
  5
20
102
{ACAD_REACTORS
330
1A
102
}
330
1A
100
AcDbPlotSettings
  1

  2
\\ALISE-4F2ADA9D7\Canon MP250 series Printer
  4

  6

 40
0.0
 41
0.0
 42
0.0
 43
0.0
 44
0.0
 45
0.0
 46
0.0
 47
0.0
 48
0.0
 49
0.0
140
0.0
141
0.0
142
1.0
143
1.0
 70
   688
 72
     0
 73
     0
 74
     5
  7

 75
    16
147
1.0
 76
     0
 77
     2
 78
   300
148
0.0
149
0.0
100
AcDbLayout
  1
布局1
 70
     1
 71
     1
 10
0.0
 20
0.0
 11
420.0
 21
297.0
 12
0.0
 22
0.0
 32
0.0
 14
1.000000000000000E+20
 24
1.000000000000000E+20
 34
1.000000000000000E+20
 15
-1.000000000000000E+20
 25
-1.000000000000000E+20
 35
-1.000000000000000E+20
146
0.0
 13
0.0
 23
0.0
 33
0.0
 16
1.0
 26
0.0
 36
0.0
 17
0.0
 27
1.0
 37
0.0
 76
     0
330
1D
  0
LAYOUT
  5
28
102
{ACAD_REACTORS
330
1A
102
}
330
1A
100
AcDbPlotSettings
  1

  2
\\ALISE-4F2ADA9D7\Canon MP250 series Printer
  4

  6

 40
0.0
 41
0.0
 42
0.0
 43
0.0
 44
0.0
 45
0.0
 46
0.0
 47
0.0
 48
0.0
 49
0.0
140
0.0
141
0.0
142
1.0
143
1.0
 70
   688
 72
     0
 73
     0
 74
     5
  7

 75
    16
147
1.0
 76
     0
 77
     2
 78
   300
148
0.0
149
0.0
100
AcDbLayout
  1
布局2
 70
     1
 71
     2
 10
0.0
 20
0.0
 11
12.0
 21
9.0
 12
0.0
 22
0.0
 32
0.0
 14
0.0
 24
0.0
 34
0.0
 15
0.0
 25
0.0
 35
0.0
146
0.0
 13
0.0
 23
0.0
 33
0.0
 16
1.0
 26
0.0
 36
0.0
 17
0.0
 27
1.0
 37
0.0
 76
     0
330
25
  0
MLINESTYLE
  5
18
102
{ACAD_REACTORS
330
17
102
}
330
17
100
AcDbMlineStyle
  2
STANDARD
 70
     0
  3

 62
   256
 51
90.0
 52
90.0
 71
     2
 49
0.5
 62
   256
  6
BYLAYER
 49
-0.5
 62
   256
  6
BYLAYER
  0
ACDBPLACEHOLDER
  5
F
102
{ACAD_REACTORS
330
E
102
}
330
E
  0
ENDSEC
  0
EOF
