  0
SECTION
  2
HEADER
  9
$ACADVER
  1
AC1018
  9
$ACADMAINTVER
 70
     0
  9
$DWGCODEPAGE
  3
ANSI_936
  9
$INSBASE
 10
0.0
 20
0.0
 30
0.0
  9
$EXTMIN
 10
253.2775124198158
 20
14.83747582603516
 30
0.0
  9
$EXTMAX
 10
675.8886101079602
 20
369.5182330898329
 30
0.0
  9
$LIMMIN
 10
0.0
 20
0.0
  9
$LIMMAX
 10
420.0
 20
297.0
  9
$ORTHOMODE
 70
     0
  9
$REGENMODE
 70
     1
  9
$FILLMODE
 70
     1
  9
$QTEXTMODE
 70
     0
  9
$MIRRTEXT
 70
     0
  9
$LTSCALE
 40
1.0
  9
$ATTMODE
 70
     1
  9
$TEXTSIZE
 40
2.5
  9
$TRACEWID
 40
1.0
  9
$TEXTSTYLE
  7
Standard
  9
$CLAYER
  8
0
  9
$CELTYPE
  6
ByLayer
  9
$CECOLOR
 62
   256
  9
$CELTSCALE
 40
1.0
  9
$DISPSILH
 70
     0
  9
$DIMSCALE
 40
1.0
  9
$DIMASZ
 40
2.5
  9
$DIMEXO
 40
0.625
  9
$DIMDLI
 40
3.75
  9
$DIMRND
 40
0.0
  9
$DIMDLE
 40
0.0
  9
$DIMEXE
 40
1.25
  9
$DIMTP
 40
0.0
  9
$DIMTM
 40
0.0
  9
$DIMTXT
 40
2.5
  9
$DIMCEN
 40
2.5
  9
$DIMTSZ
 40
0.0
  9
$DIMTOL
 70
     0
  9
$DIMLIM
 70
     0
  9
$DIMTIH
 70
     0
  9
$DIMTOH
 70
     0
  9
$DIMSE1
 70
     0
  9
$DIMSE2
 70
     0
  9
$DIMTAD
 70
     1
  9
$DIMZIN
 70
     8
  9
$DIMBLK
  1

  9
$DIMASO
 70
     1
  9
$DIMSHO
 70
     1
  9
$DIMPOST
  1

  9
$DIMAPOST
  1

  9
$DIMALT
 70
     1
  9
$DIMALTD
 70
     3
  9
$DIMALTF
 40
0.03937007874016
  9
$DIMLFAC
 40
1.0
  9
$DIMTOFL
 70
     1
  9
$DIMTVP
 40
0.0
  9
$DIMTIX
 70
     0
  9
$DIMSOXD
 70
     0
  9
$DIMSAH
 70
     0
  9
$DIMBLK1
  1

  9
$DIMBLK2
  1

  9
$DIMSTYLE
  2
ISO-25
  9
$DIMCLRD
 70
     0
  9
$DIMCLRE
 70
     0
  9
$DIMCLRT
 70
     0
  9
$DIMTFAC
 40
1.0
  9
$DIMGAP
 40
0.625
  9
$DIMJUST
 70
     0
  9
$DIMSD1
 70
     0
  9
$DIMSD2
 70
     0
  9
$DIMTOLJ
 70
     0
  9
$DIMTZIN
 70
     8
  9
$DIMALTZ
 70
     0
  9
$DIMALTTZ
 70
     0
  9
$DIMUPT
 70
     0
  9
$DIMDEC
 70
     2
  9
$DIMTDEC
 70
     2
  9
$DIMALTU
 70
     7
  9
$DIMALTTD
 70
     3
  9
$DIMTXSTY
  7
Standard
  9
$DIMAUNIT
 70
     0
  9
$DIMADEC
 70
     0
  9
$DIMALTRND
 40
0.0
  9
$DIMAZIN
 70
     0
  9
$DIMDSEP
 70
    46
  9
$DIMATFIT
 70
     3
  9
$DIMFRAC
 70
     0
  9
$DIMLDRBLK
  1

  9
$DIMLUNIT
 70
     2
  9
$DIMLWD
 70
    -2
  9
$DIMLWE
 70
    -2
  9
$DIMTMOVE
 70
     0
  9
$LUNITS
 70
     2
  9
$LUPREC
 70
     4
  9
$SKETCHINC
 40
1.0
  9
$FILLETRAD
 40
0.0
  9
$AUNITS
 70
     0
  9
$AUPREC
 70
     0
  9
$MENU
  1
.
  9
$ELEVATION
 40
0.0
  9
$PELEVATION
 40
0.0
  9
$THICKNESS
 40
0.0
  9
$LIMCHECK
 70
     0
  9
$CHAMFERA
 40
0.0
  9
$CHAMFERB
 40
0.0
  9
$CHAMFERC
 40
0.0
  9
$CHAMFERD
 40
0.0
  9
$SKPOLY
 70
     0
  9
$TDCREATE
 40
2455880.347173033
  9
$TDUCREATE
 40
2455880.013839699
  9
$TDUPDATE
 40
2455880.486066435
  9
$TDUUPDATE
 40
2455880.152733102
  9
$TDINDWG
 40
0.0594742708
  9
$TDUSRTIMER
 40
0.0594652199
  9
$USRTIMER
 70
     1
  9
$ANGBASE
 50
0.0
  9
$ANGDIR
 70
     0
  9
$PDMODE
 70
     0
  9
$PDSIZE
 40
0.0
  9
$PLINEWID
 40
0.0
  9
$SPLFRAME
 70
     0
  9
$SPLINETYPE
 70
     6
  9
$SPLINESEGS
 70
     8
  9
$HANDSEED
  5
283
  9
$SURFTAB1
 70
     6
  9
$SURFTAB2
 70
     6
  9
$SURFTYPE
 70
     6
  9
$SURFU
 70
     6
  9
$SURFV
 70
     6
  9
$UCSBASE
  2

  9
$UCSNAME
  2

  9
$UCSORG
 10
0.0
 20
0.0
 30
0.0
  9
$UCSXDIR
 10
1.0
 20
0.0
 30
0.0
  9
$UCSYDIR
 10
0.0
 20
1.0
 30
0.0
  9
$UCSORTHOREF
  2

  9
$UCSORTHOVIEW
 70
     0
  9
$UCSORGTOP
 10
0.0
 20
0.0
 30
0.0
  9
$UCSORGBOTTOM
 10
0.0
 20
0.0
 30
0.0
  9
$UCSORGLEFT
 10
0.0
 20
0.0
 30
0.0
  9
$UCSORGRIGHT
 10
0.0
 20
0.0
 30
0.0
  9
$UCSORGFRONT
 10
0.0
 20
0.0
 30
0.0
  9
$UCSORGBACK
 10
0.0
 20
0.0
 30
0.0
  9
$PUCSBASE
  2

  9
$PUCSNAME
  2

  9
$PUCSORG
 10
0.0
 20
0.0
 30
0.0
  9
$PUCSXDIR
 10
1.0
 20
0.0
 30
0.0
  9
$PUCSYDIR
 10
0.0
 20
1.0
 30
0.0
  9
$PUCSORTHOREF
  2

  9
$PUCSORTHOVIEW
 70
     0
  9
$PUCSORGTOP
 10
0.0
 20
0.0
 30
0.0
  9
$PUCSORGBOTTOM
 10
0.0
 20
0.0
 30
0.0
  9
$PUCSORGLEFT
 10
0.0
 20
0.0
 30
0.0
  9
$PUCSORGRIGHT
 10
0.0
 20
0.0
 30
0.0
  9
$PUCSORGFRONT
 10
0.0
 20
0.0
 30
0.0
  9
$PUCSORGBACK
 10
0.0
 20
0.0
 30
0.0
  9
$USERI1
 70
     0
  9
$USERI2
 70
     0
  9
$USERI3
 70
     0
  9
$USERI4
 70
     0
  9
$USERI5
 70
     0
  9
$USERR1
 40
0.0
  9
$USERR2
 40
0.0
  9
$USERR3
 40
0.0
  9
$USERR4
 40
0.0
  9
$USERR5
 40
0.0
  9
$WORLDVIEW
 70
     1
  9
$SHADEDGE
 70
     3
  9
$SHADEDIF
 70
    70
  9
$TILEMODE
 70
     1
  9
$MAXACTVP
 70
    64
  9
$PINSBASE
 10
0.0
 20
0.0
 30
0.0
  9
$PLIMCHECK
 70
     0
  9
$PEXTMIN
 10
1.000000000000000E+20
 20
1.000000000000000E+20
 30
1.000000000000000E+20
  9
$PEXTMAX
 10
-1.000000000000000E+20
 20
-1.000000000000000E+20
 30
-1.000000000000000E+20
  9
$PLIMMIN
 10
0.0
 20
0.0
  9
$PLIMMAX
 10
420.0
 20
297.0
  9
$UNITMODE
 70
     0
  9
$VISRETAIN
 70
     1
  9
$PLINEGEN
 70
     0
  9
$PSLTSCALE
 70
     1
  9
$TREEDEPTH
 70
  3020
  9
$CMLSTYLE
  2
Standard
  9
$CMLJUST
 70
     0
  9
$CMLSCALE
 40
20.0
  9
$PROXYGRAPHICS
 70
     1
  9
$MEASUREMENT
 70
     1
  9
$CELWEIGHT
370
    -1
  9
$ENDCAPS
280
     0
  9
$JOINSTYLE
280
     0
  9
$LWDISPLAY
290
     0
  9
$INSUNITS
 70
     4
  9
$HYPERLINKBASE
  1

  9
$STYLESHEET
  1

  9
$XEDIT
290
     1
  9
$CEPSNTYPE
380
     0
  9
$PSTYLEMODE
290
     1
  9
$FINGERPRINTGUID
  2
{CB1F124D-4BF8-46EC-AFCF-95FAF6CBECD4}
  9
$VERSIONGUID
  2
{7C73CE44-E6E9-407C-A1C2-38F7A4F956CE}
  9
$EXTNAMES
290
     1
  9
$PSVPSCALE
 40
0.0
  9
$OLESTARTUP
290
     0
  9
$SORTENTS
280
   127
  9
$INDEXCTL
280
     0
  9
$HIDETEXT
280
     1
  9
$XCLIPFRAME
290
     0
  9
$HALOGAP
280
     0
  9
$OBSCOLOR
 70
   257
  9
$OBSLTYPE
280
     0
  9
$INTERSECTIONDISPLAY
280
     0
  9
$INTERSECTIONCOLOR
 70
   257
  9
$DIMASSOC
280
     2
  9
$PROJECTNAME
  1

  0
ENDSEC
  0
SECTION
  2
CLASSES
  0
CLASS
  1
ACDBDICTIONARYWDFLT
  2
AcDbDictionaryWithDefault
  3
ObjectDBX Classes
 90
        0
 91
        1
280
     0
281
     0
  0
CLASS
  1
DIMASSOC
  2
AcDbDimAssoc
  3
"AcDbDimAssoc|Product Desc:     AcDim ARX App For Dimension|Company:          Autodesk, Inc.|WEB Address:      www.autodesk.com"
 90
        0
 91
        0
280
     0
281
     0
  0
ENDSEC
  0
SECTION
  2
TABLES
  0
TABLE
  2
VPORT
  5
8
330
0
100
AcDbSymbolTable
 70
     2
  0
VPORT
  5
282
330
8
100
AcDbSymbolTableRecord
100
AcDbViewportTableRecord
  2
*Active
 70
     0
 10
0.0
 20
0.0
 11
1.0
 21
1.0
 12
561.5287170442217
 22
160.3161200219006
 13
0.0
 23
0.0
 14
10.0
 24
10.0
 15
10.0
 25
10.0
 16
0.0
 26
0.0
 36
1.0
 17
0.0
 27
0.0
 37
0.0
 40
602.8038267501065
 41
2.155234657039711
 42
50.0
 43
0.0
 44
0.0
 50
0.0
 51
0.0
 71
     0
 72
  1000
 73
     1
 74
     3
 75
     0
 76
     0
 77
     0
 78
     0
281
     0
 65
     1
110
0.0
120
0.0
130
0.0
111
1.0
121
0.0
131
0.0
112
0.0
122
1.0
132
0.0
 79
     0
146
0.0
  0
ENDTAB
  0
TABLE
  2
LTYPE
  5
5
330
0
100
AcDbSymbolTable
 70
     2
  0
LTYPE
  5
14
330
5
100
AcDbSymbolTableRecord
100
AcDbLinetypeTableRecord
  2
ByBlock
 70
     0
  3

 72
    65
 73
     0
 40
0.0
  0
LTYPE
  5
15
330
5
100
AcDbSymbolTableRecord
100
AcDbLinetypeTableRecord
  2
ByLayer
 70
     0
  3

 72
    65
 73
     0
 40
0.0
  0
LTYPE
  5
16
330
5
100
AcDbSymbolTableRecord
100
AcDbLinetypeTableRecord
  2
Continuous
 70
     0
  3
Solid line
 72
    65
 73
     0
 40
0.0
  0
LTYPE
  5
36
330
5
100
AcDbSymbolTableRecord
100
AcDbLinetypeTableRecord
  2
ACAD_ISO02W100
 70
     0
  3
ISO dash __ __ __ __ __ __ __ __ __ __ __ __ __
 72
    65
 73
     2
 40
15.0
 49
12.0
 74
     0
 49
-3.0
 74
     0
  0
ENDTAB
  0
TABLE
  2
LAYER
  5
2
102
{ACAD_XDICTIONARY
360
78
102
}
330
0
100
AcDbSymbolTable
 70
     2
  0
LAYER
  5
10
330
2
100
AcDbSymbolTableRecord
100
AcDbLayerTableRecord
  2
0
 70
     0
 62
     7
  6
Continuous
370
    -3
390
F
  0
LAYER
  5
39
330
2
100
AcDbSymbolTableRecord
100
AcDbLayerTableRecord
  2
Defpoints
 70
     0
 62
     7
  6
Continuous
290
     0
370
    -3
390
F
  0
ENDTAB
  0
TABLE
  2
STYLE
  5
3
330
0
100
AcDbSymbolTable
 70
     2
  0
STYLE
  5
11
330
3
100
AcDbSymbolTableRecord
100
AcDbTextStyleTableRecord
  2
Standard
 70
     0
 40
0.0
 41
1.0
 50
0.0
 71
     0
 42
2.5
  3
txt
  4

  0
STYLE
  5
35
330
3
100
AcDbSymbolTableRecord
100
AcDbTextStyleTableRecord
  2

 70
     1
 40
0.0
 41
1.0
 50
0.0
 71
     0
 42
2.5
  3
ltypeshp.shx
  4

  0
ENDTAB
  0
TABLE
  2
VIEW
  5
6
330
0
100
AcDbSymbolTable
 70
     0
  0
ENDTAB
  0
TABLE
  2
UCS
  5
7
330
0
100
AcDbSymbolTable
 70
     0
  0
ENDTAB
  0
TABLE
  2
APPID
  5
9
330
0
100
AcDbSymbolTable
 70
     1
  0
APPID
  5
12
330
9
100
AcDbSymbolTableRecord
100
AcDbRegAppTableRecord
  2
ACAD
 70
     0
  0
ENDTAB
  0
TABLE
  2
DIMSTYLE
  5
A
330
0
100
AcDbSymbolTable
 70
     2
100
AcDbDimStyleTable
 71
     1
340
29
  0
DIMSTYLE
105
29
330
A
100
AcDbSymbolTableRecord
100
AcDbDimStyleTableRecord
  2
ISO-25
 70
     0
 41
2.5
 42
0.625
 43
3.75
 44
1.25
 73
     0
 74
     0
 77
     1
 78
     8
140
2.5
141
2.5
143
0.03937007874016
147
0.625
170
     1
171
     3
172
     1
271
     2
272
     2
273
     7
274
     3
283
     0
284
     8
340
11
  0
DIMSTYLE
105
77
330
A
100
AcDbSymbolTableRecord
100
AcDbDimStyleTableRecord
  2
Standard
 70
     0
170
     1
273
     7
277
     5
340
11
  0
ENDTAB
  0
TABLE
  2
BLOCK_RECORD
  5
1
330
0
100
AcDbSymbolTable
 70
    18
  0
BLOCK_RECORD
  5
21
330
1
100
AcDbSymbolTableRecord
100
AcDbBlockTableRecord
  2
*Model_Space
340
24
  0
BLOCK_RECORD
  5
1D
330
1
100
AcDbSymbolTableRecord
100
AcDbBlockTableRecord
  2
*Paper_Space
340
20
  0
BLOCK_RECORD
  5
25
330
1
100
AcDbSymbolTableRecord
100
AcDbBlockTableRecord
  2
*Paper_Space0
340
28
  0
BLOCK_RECORD
  5
3A
330
1
100
AcDbSymbolTableRecord
100
AcDbBlockTableRecord
  2
*D1
340
0
  0
BLOCK_RECORD
  5
53
330
1
100
AcDbSymbolTableRecord
100
AcDbBlockTableRecord
  2
*D2
340
0
  0
BLOCK_RECORD
  5
98
330
1
100
AcDbSymbolTableRecord
100
AcDbBlockTableRecord
  2
*D3
340
0
  0
BLOCK_RECORD
  5
BF
330
1
100
AcDbSymbolTableRecord
100
AcDbBlockTableRecord
  2
*D4
340
0
  0
BLOCK_RECORD
  5
D9
330
1
100
AcDbSymbolTableRecord
100
AcDbBlockTableRecord
  2
*D5
340
0
  0
BLOCK_RECORD
  5
112
330
1
100
AcDbSymbolTableRecord
100
AcDbBlockTableRecord
  2
*D6
340
0
  0
BLOCK_RECORD
  5
126
330
1
100
AcDbSymbolTableRecord
100
AcDbBlockTableRecord
  2
*D7
340
0
  0
BLOCK_RECORD
  5
139
330
1
100
AcDbSymbolTableRecord
100
AcDbBlockTableRecord
  2
*D8
340
0
  0
BLOCK_RECORD
  5
15A
330
1
100
AcDbSymbolTableRecord
100
AcDbBlockTableRecord
  2
*D9
340
0
  0
BLOCK_RECORD
  5
17C
330
1
100
AcDbSymbolTableRecord
100
AcDbBlockTableRecord
  2
*D10
340
0
  0
BLOCK_RECORD
  5
19F
330
1
100
AcDbSymbolTableRecord
100
AcDbBlockTableRecord
  2
*D11
340
0
  0
BLOCK_RECORD
  5
1B7
330
1
100
AcDbSymbolTableRecord
100
AcDbBlockTableRecord
  2
*D12
340
0
  0
BLOCK_RECORD
  5
1D0
330
1
100
AcDbSymbolTableRecord
100
AcDbBlockTableRecord
  2
*D13
340
0
  0
BLOCK_RECORD
  5
206
330
1
100
AcDbSymbolTableRecord
100
AcDbBlockTableRecord
  2
*D14
340
0
  0
BLOCK_RECORD
  5
21E
330
1
100
AcDbSymbolTableRecord
100
AcDbBlockTableRecord
  2
*D15
340
0
  0
BLOCK_RECORD
  5
242
330
1
100
AcDbSymbolTableRecord
100
AcDbBlockTableRecord
  2
*D16
340
0
  0
ENDTAB
  0
ENDSEC
  0
SECTION
  2
BLOCKS
  0
BLOCK
  5
22
330
21
100
AcDbEntity
  8
0
100
AcDbBlockBegin
  2
*Model_Space
 70
     0
 10
0.0
 20
0.0
 30
0.0
  3
*Model_Space
  1

  0
ENDBLK
  5
23
330
21
100
AcDbEntity
  8
0
100
AcDbBlockEnd
  0
BLOCK
  5
1E
330
1D
100
AcDbEntity
 67
     1
  8
0
100
AcDbBlockBegin
  2
*Paper_Space
 70
     0
 10
0.0
 20
0.0
 30
0.0
  3
*Paper_Space
  1

  0
ENDBLK
  5
1F
330
1D
100
AcDbEntity
 67
     1
  8
0
100
AcDbBlockEnd
  0
BLOCK
  5
26
330
25
100
AcDbEntity
  8
0
100
AcDbBlockBegin
  2
*Paper_Space0
 70
     0
 10
0.0
 20
0.0
 30
0.0
  3
*Paper_Space0
  1

  0
ENDBLK
  5
27
330
25
100
AcDbEntity
  8
0
100
AcDbBlockEnd
  0
BLOCK
  5
44
330
3A
100
AcDbEntity
  8
0
100
AcDbBlockBegin
  2
*D1
 70
     1
 10
0.0
 20
0.0
 30
0.0
  3
*D1
  1

  0
LINE
  5
47
330
3A
100
AcDbEntity
  8
0
 62
     0
370
    -2
100
AcDbLine
 10
448.9946294863918
 20
352.9628372153129
 30
0.0
 11
685.9603280629641
 21
352.9628372153128
 31
0.0
  0
LINE
  5
48
330
3A
100
AcDbEntity
  8
0
 62
     0
370
    -2
100
AcDbLine
 10
446.4025124198157
 20
-13.52411881321154
 30
0.0
 11
685.960328062964
 21
-13.52411881321161
 31
0.0
  0
LINE
  5
49
330
3A
100
AcDbEntity
  8
0
 62
     0
370
    -2
100
AcDbLine
 10
684.7103280629641
 20
350.4628372153129
 30
0.0
 11
684.710328062964
 21
-11.02411881321161
 31
0.0
  0
SOLID
  5
4A
330
3A
100
AcDbEntity
  8
0
 62
     0
100
AcDbTrace
 10
684.2936613962972
 20
350.4628372153129
 30
0.0
 11
685.1269947296307
 21
350.4628372153129
 31
0.0
 12
684.7103280629641
 22
352.9628372153128
 32
0.0
 13
684.7103280629641
 23
352.9628372153128
 33
0.0
  0
SOLID
  5
4B
330
3A
100
AcDbEntity
  8
0
 62
     0
100
AcDbTrace
 10
684.2936613962972
 20
-11.02411881321161
 30
0.0
 11
685.1269947296306
 21
-11.02411881321161
 31
0.0
 12
684.710328062964
 22
-13.52411881321161
 32
0.0
 13
684.710328062964
 23
-13.52411881321161
 33
0.0
  0
MTEXT
  5
4C
330
3A
100
AcDbEntity
  8
0
 62
     0
100
AcDbMText
 10
682.835328062964
 20
169.7193592010506
 30
0.0
 40
2.5
 41
0.0
 71
     5
 72
     1
  1
366.49
 11
0.0000000000000001
 21
1.0
 31
0.0
 73
     1
 44
1.0
  0
POINT
  5
4D
330
3A
100
AcDbEntity
  8
Defpoints
 62
     0
100
AcDbPoint
 10
448.3696294863919
 20
352.9628372153129
 30
0.0
  0
POINT
  5
4E
330
3A
100
AcDbEntity
  8
Defpoints
 62
     0
100
AcDbPoint
 10
445.7775124198156
 20
-13.52411881321154
 30
0.0
  0
POINT
  5
4F
330
3A
100
AcDbEntity
  8
Defpoints
 62
     0
100
AcDbPoint
 10
684.710328062964
 20
-13.52411881321161
 30
0.0
  0
ENDBLK
  5
45
330
3A
100
AcDbEntity
  8
0
100
AcDbBlockEnd
  0
BLOCK
  5
5D
330
53
100
AcDbEntity
  8
0
100
AcDbBlockBegin
  2
*D2
 70
     1
 10
0.0
 20
0.0
 30
0.0
  3
*D2
  1

  0
LINE
  5
60
330
53
100
AcDbEntity
  8
0
 62
     0
370
    -2
100
AcDbLine
 10
225.7775138688246
 20
171.621564529875
 30
0.0
 11
225.7775138688246
 21
383.6584569878496
 31
0.0
  0
LINE
  5
61
330
53
100
AcDbEntity
  8
0
 62
     0
370
    -2
100
AcDbLine
 10
665.777510970807
 20
171.5797872603029
 30
0.0
 11
665.777510970807
 21
383.6584569878496
 31
0.0
  0
LINE
  5
62
330
53
100
AcDbEntity
  8
0
 62
     0
370
    -2
100
AcDbLine
 10
228.2775138688246
 20
382.4084569878497
 30
0.0
 11
663.277510970807
 21
382.4084569878497
 31
0.0
  0
SOLID
  5
63
330
53
100
AcDbEntity
  8
0
 62
     0
100
AcDbTrace
 10
228.2775138688246
 20
382.8251236545164
 30
0.0
 11
228.2775138688246
 21
381.991790321183
 31
0.0
 12
225.7775138688246
 22
382.4084569878497
 32
0.0
 13
225.7775138688246
 23
382.4084569878497
 33
0.0
  0
SOLID
  5
64
330
53
100
AcDbEntity
  8
0
 62
     0
100
AcDbTrace
 10
663.277510970807
 20
382.8251236545164
 30
0.0
 11
663.277510970807
 21
381.991790321183
 31
0.0
 12
665.777510970807
 22
382.4084569878497
 32
0.0
 13
665.777510970807
 23
382.4084569878497
 33
0.0
  0
MTEXT
  5
65
330
53
100
AcDbEntity
  8
0
 62
     0
100
AcDbMText
 10
445.7775124198158
 20
384.2834569878497
 30
0.0
 40
2.5
 41
0.0
 71
     5
 72
     1
  1
440
 73
     1
 44
1.0
  0
POINT
  5
66
330
53
100
AcDbEntity
  8
Defpoints
 62
     0
100
AcDbPoint
 10
225.7775138688246
 20
170.996564529875
 30
0.0
  0
POINT
  5
67
330
53
100
AcDbEntity
  8
Defpoints
 62
     0
100
AcDbPoint
 10
665.777510970807
 20
170.9547872603029
 30
0.0
  0
POINT
  5
68
330
53
100
AcDbEntity
  8
Defpoints
 62
     0
100
AcDbPoint
 10
665.777510970807
 20
382.4084569878497
 30
0.0
  0
ENDBLK
  5
5E
330
53
100
AcDbEntity
  8
0
100
AcDbBlockEnd
  0
BLOCK
  5
A2
330
98
100
AcDbEntity
  8
0
100
AcDbBlockBegin
  2
*D3
 70
     1
 10
0.0
 20
0.0
 30
0.0
  3
*D3
  1

  0
LINE
  5
AF
330
98
100
AcDbEntity
  8
0
 62
     0
370
    -2
100
AcDbLine
 10
445.1525124198155
 20
-11.02411881321148
 30
0.0
 11
436.5344243118363
 21
-11.02411881321148
 31
0.0
  0
LINE
  5
B0
330
98
100
AcDbEntity
  8
0
 62
     0
370
    -2
100
AcDbLine
 10
524.6392435292963
 20
80.57206053968684
 30
0.0
 11
436.5344243118363
 21
80.57206053968686
 31
0.0
  0
LINE
  5
B1
330
98
100
AcDbEntity
  8
0
 62
     0
370
    -2
100
AcDbLine
 10
437.7844243118365
 20
-8.524118813211485
 30
0.0
 11
437.7844243118365
 21
78.07206053968686
 31
0.0
  0
SOLID
  5
B2
330
98
100
AcDbEntity
  8
0
 62
     0
100
AcDbTrace
 10
437.3677576451698
 20
-8.524118813211485
 30
0.0
 11
438.2010909785032
 21
-8.524118813211485
 31
0.0
 12
437.7844243118365
 22
-11.02411881321148
 32
0.0
 13
437.7844243118365
 23
-11.02411881321148
 33
0.0
  0
SOLID
  5
B3
330
98
100
AcDbEntity
  8
0
 62
     0
100
AcDbTrace
 10
437.3677576451698
 20
78.07206053968686
 30
0.0
 11
438.2010909785032
 21
78.07206053968686
 31
0.0
 12
437.7844243118365
 22
80.57206053968686
 32
0.0
 13
437.7844243118365
 23
80.57206053968686
 33
0.0
  0
MTEXT
  5
B4
330
98
100
AcDbEntity
  8
0
 62
     0
100
AcDbMText
 10
435.9094243118366
 20
34.77397086323776
 30
0.0
 40
2.5
 41
0.0
 71
     5
 72
     1
  1
91.6
 11
0.0000000000000001
 21
1.0
 31
0.0
 73
     1
 44
1.0
  0
POINT
  5
B5
330
98
100
AcDbEntity
  8
Defpoints
 62
     0
100
AcDbPoint
 10
445.7775124198156
 20
-11.02411881321148
 30
0.0
  0
POINT
  5
B6
330
98
100
AcDbEntity
  8
Defpoints
 62
     0
100
AcDbPoint
 10
525.2642435292963
 20
80.57206053968684
 30
0.0
  0
POINT
  5
B7
330
98
100
AcDbEntity
  8
Defpoints
 62
     0
100
AcDbPoint
 10
437.7844243118365
 20
80.57206053968686
 30
0.0
  0
ENDBLK
  5
A3
330
98
100
AcDbEntity
  8
0
100
AcDbBlockEnd
  0
BLOCK
  5
CA
330
BF
100
AcDbEntity
  8
0
100
AcDbBlockBegin
  2
*D4
 70
     1
 10
0.0
 20
0.0
 30
0.0
  3
*D4
  1

  0
LINE
  5
FA
330
BF
100
AcDbEntity
  8
0
 62
     0
370
    -2
100
AcDbLine
 10
685.0820029516198
 20
171.6006758950889
 30
0.0
 11
685.0820029516198
 21
351.7128372153128
 31
0.0
  0
LINE
  5
FB
330
BF
100
AcDbEntity
  8
0
 62
     0
370
    -2
100
AcDbLine
 10
685.0820029516198
 20
171.6006758950889
 30
0.0
 11
685.0820029516198
 21
351.7128372153128
 31
0.0
  0
LINE
  5
FC
330
BF
100
AcDbEntity
  8
0
 62
     0
370
    -2
100
AcDbLine
 10
682.5820029516201
 20
350.4628372153129
 30
0.0
 11
680.08200295162
 21
350.4628372153129
 31
0.0
  0
LINE
  5
FD
330
BF
100
AcDbEntity
  8
0
 62
     0
370
    -2
100
AcDbLine
 10
687.5820029516201
 20
350.4628372153129
 30
0.0
 11
692.9986696182867
 21
350.4628372153129
 31
0.0
  0
SOLID
  5
FE
330
BF
100
AcDbEntity
  8
0
 62
     0
100
AcDbTrace
 10
682.5820029516201
 20
350.8795038819795
 30
0.0
 11
682.5820029516201
 21
350.0461705486462
 31
0.0
 12
685.0820029516198
 22
350.4628372153129
 32
0.0
 13
685.0820029516198
 23
350.4628372153129
 33
0.0
  0
SOLID
  5
FF
330
BF
100
AcDbEntity
  8
0
 62
     0
100
AcDbTrace
 10
687.5820029516201
 20
350.8795038819795
 30
0.0
 11
687.5820029516201
 21
350.0461705486462
 31
0.0
 12
685.0820029516198
 22
350.4628372153129
 32
0.0
 13
685.0820029516198
 23
350.4628372153129
 33
0.0
  0
MTEXT
  5
100
330
BF
100
AcDbEntity
  8
0
 62
     0
100
AcDbMText
 10
691.5403362849533
 20
352.3378372153128
 30
0.0
 40
2.5
 41
0.0
 71
     5
 72
     1
  1
0
 73
     1
 44
1.0
  0
POINT
  5
101
330
BF
100
AcDbEntity
  8
Defpoints
 62
     0
100
AcDbPoint
 10
685.0820029516198
 20
170.9756758950889
 30
0.0
  0
POINT
  5
102
330
BF
100
AcDbEntity
  8
Defpoints
 62
     0
100
AcDbPoint
 10
685.0820029516198
 20
170.9756758950889
 30
0.0
  0
POINT
  5
103
330
BF
100
AcDbEntity
  8
Defpoints
 62
     0
100
AcDbPoint
 10
685.0820029516198
 20
350.4628372153129
 30
0.0
  0
ENDBLK
  5
CB
330
BF
100
AcDbEntity
  8
0
100
AcDbBlockEnd
  0
BLOCK
  5
E3
330
D9
100
AcDbEntity
  8
0
100
AcDbBlockBegin
  2
*D5
 70
     1
 10
0.0
 20
0.0
 30
0.0
  3
*D5
  1

  0
LINE
  5
E6
330
D9
100
AcDbEntity
  8
0
 62
     0
370
    -2
100
AcDbLine
 10
446.4025124198157
 20
170.975675895089
 30
0.0
 11
686.33200295162
 21
170.9756758950889
 31
0.0
  0
LINE
  5
E7
330
D9
100
AcDbEntity
  8
0
 62
     0
370
    -2
100
AcDbLine
 10
445.7775124198156
 20
-11.02411881321148
 30
0.0
 11
686.33200295162
 21
-11.02411881321155
 31
0.0
  0
LINE
  5
E8
330
D9
100
AcDbEntity
  8
0
 62
     0
370
    -2
100
AcDbLine
 10
685.0820029516198
 20
168.4756758950889
 30
0.0
 11
685.0820029516198
 21
-8.524118813211554
 31
0.0
  0
SOLID
  5
E9
330
D9
100
AcDbEntity
  8
0
 62
     0
100
AcDbTrace
 10
684.6653362849536
 20
168.4756758950889
 30
0.0
 11
685.4986696182867
 21
168.4756758950889
 31
0.0
 12
685.0820029516198
 22
170.9756758950889
 32
0.0
 13
685.0820029516198
 23
170.9756758950889
 33
0.0
  0
SOLID
  5
EA
330
D9
100
AcDbEntity
  8
0
 62
     0
100
AcDbTrace
 10
684.6653362849536
 20
-8.524118813211554
 30
0.0
 11
685.4986696182867
 21
-8.524118813211554
 31
0.0
 12
685.0820029516198
 22
-11.02411881321155
 32
0.0
 13
685.0820029516198
 23
-11.02411881321155
 33
0.0
  0
MTEXT
  5
EB
330
D9
100
AcDbEntity
  8
0
 62
     0
100
AcDbMText
 10
683.20700295162
 20
79.97577854093879
 30
0.0
 40
2.5
 41
0.0
 71
     5
 72
     1
  1
182
 11
0.0000000000000001
 21
1.0
 31
0.0
 73
     1
 44
1.0
  0
POINT
  5
EC
330
D9
100
AcDbEntity
  8
Defpoints
 62
     0
100
AcDbPoint
 10
445.7775124198158
 20
170.975675895089
 30
0.0
  0
POINT
  5
ED
330
D9
100
AcDbEntity
  8
Defpoints
 62
     0
100
AcDbPoint
 10
445.1525124198155
 20
-11.02411881321148
 30
0.0
  0
POINT
  5
EE
330
D9
100
AcDbEntity
  8
Defpoints
 62
     0
100
AcDbPoint
 10
685.0820029516198
 20
-11.02411881321155
 30
0.0
  0
ENDBLK
  5
E4
330
D9
100
AcDbEntity
  8
0
100
AcDbBlockEnd
  0
BLOCK
  5
11C
330
112
100
AcDbEntity
  8
0
100
AcDbBlockBegin
  2
*D6
 70
     1
 10
0.0
 20
0.0
 30
0.0
  3
*D6
  1

  0
LINE
  5
113
330
112
100
AcDbEntity
  8
0
 62
     0
370
    -2
100
AcDbLine
 10
685.3353280629638
 20
352.9628372153128
 30
0.0
 11
700.3141777994502
 21
352.9628372153128
 31
0.0
  0
LINE
  5
114
330
112
100
AcDbEntity
  8
0
 62
     0
370
    -2
100
AcDbLine
 10
685.7519947296306
 20
-11.02411881321161
 30
0.0
 11
700.31417779945
 21
-11.02411881321161
 31
0.0
  0
LINE
  5
115
330
112
100
AcDbEntity
  8
0
 62
     0
370
    -2
100
AcDbLine
 10
699.0641777994502
 20
350.4628372153129
 30
0.0
 11
699.06417779945
 21
-8.524118813211613
 31
0.0
  0
SOLID
  5
116
330
112
100
AcDbEntity
  8
0
 62
     0
100
AcDbTrace
 10
698.6475111327836
 20
350.4628372153129
 30
0.0
 11
699.480844466117
 21
350.4628372153129
 31
0.0
 12
699.0641777994502
 22
352.9628372153128
 32
0.0
 13
699.0641777994502
 23
352.9628372153128
 33
0.0
  0
SOLID
  5
117
330
112
100
AcDbEntity
  8
0
 62
     0
100
AcDbTrace
 10
698.6475111327835
 20
-8.524118813211613
 30
0.0
 11
699.4808444661167
 21
-8.524118813211613
 31
0.0
 12
699.06417779945
 22
-11.02411881321161
 32
0.0
 13
699.06417779945
 23
-11.02411881321161
 33
0.0
  0
MTEXT
  5
118
330
112
100
AcDbEntity
  8
0
 62
     0
100
AcDbMText
 10
697.18917779945
 20
170.9693592010506
 30
0.0
 40
2.5
 41
0.0
 71
     5
 72
     1
  1
363.99
 11
0.0000000000000001
 21
1.0
 31
0.0
 73
     1
 44
1.0
  0
POINT
  5
119
330
112
100
AcDbEntity
  8
Defpoints
 62
     0
100
AcDbPoint
 10
684.7103280629641
 20
352.9628372153128
 30
0.0
  0
POINT
  5
11A
330
112
100
AcDbEntity
  8
Defpoints
 62
     0
100
AcDbPoint
 10
685.1269947296306
 20
-11.02411881321161
 30
0.0
  0
POINT
  5
11B
330
112
100
AcDbEntity
  8
Defpoints
 62
     0
100
AcDbPoint
 10
699.06417779945
 20
-11.02411881321161
 30
0.0
  0
ENDBLK
  5
11D
330
112
100
AcDbEntity
  8
0
100
AcDbBlockEnd
  0
BLOCK
  5
130
330
126
100
AcDbEntity
  8
0
100
AcDbBlockBegin
  2
*D7
 70
     1
 10
0.0
 20
0.0
 30
0.0
  3
*D7
  1

  0
LINE
  5
127
330
126
100
AcDbEntity
  8
0
 62
     0
370
    -2
100
AcDbLine
 10
225.7775138688246
 20
383.0334569878496
 30
0.0
 11
225.7775138688246
 21
389.9738466976907
 31
0.0
  0
LINE
  5
128
330
126
100
AcDbEntity
  8
0
 62
     0
370
    -2
100
AcDbLine
 10
665.777510970807
 20
383.0334569878496
 30
0.0
 11
665.777510970807
 21
389.9738466976907
 31
0.0
  0
LINE
  5
129
330
126
100
AcDbEntity
  8
0
 62
     0
370
    -2
100
AcDbLine
 10
228.2775138688246
 20
388.7238466976906
 30
0.0
 11
663.277510970807
 21
388.7238466976906
 31
0.0
  0
SOLID
  5
12A
330
126
100
AcDbEntity
  8
0
 62
     0
100
AcDbTrace
 10
228.2775138688246
 20
389.1405133643573
 30
0.0
 11
228.2775138688246
 21
388.307180031024
 31
0.0
 12
225.7775138688246
 22
388.7238466976906
 32
0.0
 13
225.7775138688246
 23
388.7238466976906
 33
0.0
  0
SOLID
  5
12B
330
126
100
AcDbEntity
  8
0
 62
     0
100
AcDbTrace
 10
663.277510970807
 20
389.1405133643573
 30
0.0
 11
663.277510970807
 21
388.307180031024
 31
0.0
 12
665.777510970807
 22
388.7238466976906
 32
0.0
 13
665.777510970807
 23
388.7238466976906
 33
0.0
  0
MTEXT
  5
12C
330
126
100
AcDbEntity
  8
0
 62
     0
100
AcDbMText
 10
445.7775124198158
 20
391.2536086024526
 30
0.0
 40
2.5
 41
0.0
 71
     5
 72
     1
  1
440 [17 3/8]
 73
     1
 44
1.0
  0
POINT
  5
12D
330
126
100
AcDbEntity
  8
Defpoints
 62
     0
100
AcDbPoint
 10
225.7775138688246
 20
382.4084569878497
 30
0.0
  0
POINT
  5
12E
330
126
100
AcDbEntity
  8
Defpoints
 62
     0
100
AcDbPoint
 10
665.777510970807
 20
382.4084569878497
 30
0.0
  0
POINT
  5
12F
330
126
100
AcDbEntity
  8
Defpoints
 62
     0
100
AcDbPoint
 10
665.777510970807
 20
388.7238466976906
 30
0.0
  0
ENDBLK
  5
131
330
126
100
AcDbEntity
  8
0
100
AcDbBlockEnd
  0
BLOCK
  5
143
330
139
100
AcDbEntity
  8
0
100
AcDbBlockBegin
  2
*D8
 70
     1
 10
0.0
 20
0.0
 30
0.0
  3
*D8
  1

  0
LINE
  5
13A
330
139
100
AcDbEntity
  8
0
 62
     0
370
    -2
100
AcDbLine
 10
699.6891777994502
 20
352.9628372153128
 30
0.0
 11
710.9575694584215
 21
352.9628372153128
 31
0.0
  0
LINE
  5
13B
330
139
100
AcDbEntity
  8
0
 62
     0
370
    -2
100
AcDbLine
 10
699.2725111327835
 20
-11.02411881321161
 30
0.0
 11
710.9575694584212
 21
-11.02411881321161
 31
0.0
  0
LINE
  5
13C
330
139
100
AcDbEntity
  8
0
 62
     0
370
    -2
100
AcDbLine
 10
709.7075694584215
 20
350.4628372153129
 30
0.0
 11
709.7075694584212
 21
-8.524118813211616
 31
0.0
  0
SOLID
  5
13D
330
139
100
AcDbEntity
  8
0
 62
     0
100
AcDbTrace
 10
709.2909027917547
 20
350.4628372153129
 30
0.0
 11
710.1242361250881
 21
350.4628372153129
 31
0.0
 12
709.7075694584215
 22
352.9628372153128
 32
0.0
 13
709.7075694584215
 23
352.9628372153128
 33
0.0
  0
SOLID
  5
13E
330
139
100
AcDbEntity
  8
0
 62
     0
100
AcDbTrace
 10
709.2909027917547
 20
-8.524118813211616
 30
0.0
 11
710.124236125088
 21
-8.524118813211616
 31
0.0
 12
709.7075694584212
 22
-11.02411881321161
 32
0.0
 13
709.7075694584212
 23
-11.02411881321161
 33
0.0
  0
MTEXT
  5
13F
330
139
100
AcDbEntity
  8
0
 62
     0
100
AcDbMText
 10
707.1778075536592
 20
170.9693592010506
 30
0.0
 40
2.5
 41
0.0
 71
     5
 72
     1
  1
363.99 [14 3/8]
 11
0.0000000000000001
 21
1.0
 31
0.0
 73
     1
 44
1.0
  0
POINT
  5
140
330
139
100
AcDbEntity
  8
Defpoints
 62
     0
100
AcDbPoint
 10
699.0641777994502
 20
352.9628372153128
 30
0.0
  0
POINT
  5
141
330
139
100
AcDbEntity
  8
Defpoints
 62
     0
100
AcDbPoint
 10
698.6475111327835
 20
-11.02411881321161
 30
0.0
  0
POINT
  5
142
330
139
100
AcDbEntity
  8
Defpoints
 62
     0
100
AcDbPoint
 10
709.7075694584212
 20
-11.02411881321161
 30
0.0
  0
ENDBLK
  5
144
330
139
100
AcDbEntity
  8
0
100
AcDbBlockEnd
  0
BLOCK
  5
164
330
15A
100
AcDbEntity
  8
0
100
AcDbBlockBegin
  2
*D9
 70
     1
 10
0.0
 20
0.0
 30
0.0
  3
*D9
  1

  0
LINE
  5
167
330
15A
100
AcDbEntity
  8
0
 62
     0
370
    -2
100
AcDbLine
 10
437.1594243118364
 20
78.07206053968686
 30
0.0
 11
436.5344243118363
 21
78.07206053968686
 31
0.0
  0
LINE
  5
168
330
15A
100
AcDbEntity
  8
0
 62
     0
370
    -2
100
AcDbLine
 10
437.1594243118364
 20
-0.3994551184276529
 30
0.0
 11
436.5344243118363
 21
-0.3994551184276528
 31
0.0
  0
LINE
  5
169
330
15A
100
AcDbEntity
  8
0
 62
     0
370
    -2
100
AcDbLine
 10
437.7844243118365
 20
75.57206053968686
 30
0.0
 11
437.7844243118365
 21
2.100544881572345
 31
0.0
  0
SOLID
  5
16A
330
15A
100
AcDbEntity
  8
0
 62
     0
100
AcDbTrace
 10
437.3677576451695
 20
75.57206053968686
 30
0.0
 11
438.201090978503
 21
75.57206053968686
 31
0.0
 12
437.7844243118365
 22
78.07206053968686
 32
0.0
 13
437.7844243118365
 23
78.07206053968686
 33
0.0
  0
SOLID
  5
16B
330
15A
100
AcDbEntity
  8
0
 62
     0
100
AcDbTrace
 10
437.3677576451695
 20
2.100544881572345
 30
0.0
 11
438.201090978503
 21
2.100544881572345
 31
0.0
 12
437.7844243118365
 22
-0.3994551184276531
 32
0.0
 13
437.7844243118365
 23
-0.3994551184276531
 33
0.0
  0
MTEXT
  5
16C
330
15A
100
AcDbEntity
  8
0
 62
     0
100
AcDbMText
 10
435.2546624070745
 20
38.83630271062968
 30
0.0
 40
2.5
 41
0.0
 71
     5
 72
     1
  1
78.47 [3 1/8]
 11
0.0000000000000001
 21
1.0
 31
0.0
 73
     1
 44
1.0
  0
POINT
  5
16D
330
15A
100
AcDbEntity
  8
Defpoints
 62
     0
100
AcDbPoint
 10
437.7844243118365
 20
78.07206053968686
 30
0.0
  0
POINT
  5
16E
330
15A
100
AcDbEntity
  8
Defpoints
 62
     0
100
AcDbPoint
 10
437.7844243118365
 20
-0.3994551184276531
 30
0.0
  0
POINT
  5
16F
330
15A
100
AcDbEntity
  8
Defpoints
 62
     0
100
AcDbPoint
 10
437.7844243118365
 20
-0.3994551184276531
 30
0.0
  0
ENDBLK
  5
165
330
15A
100
AcDbEntity
  8
0
100
AcDbBlockEnd
  0
BLOCK
  5
186
330
17C
100
AcDbEntity
  8
0
100
AcDbBlockBegin
  2
*D10
 70
     1
 10
0.0
 20
0.0
 30
0.0
  3
*D10
  1

  0
LINE
  5
189
330
17C
100
AcDbEntity
  8
0
 62
     0
370
    -2
100
AcDbLine
 10
443.6228637847788
 20
342.4605797461792
 30
0.0
 11
686.2752998288835
 21
342.4605797461791
 31
0.0
  0
LINE
  5
18A
330
17C
100
AcDbEntity
  8
0
 62
     0
370
    -2
100
AcDbLine
 10
443.4986238060146
 20
-0.5275292529229746
 30
0.0
 11
686.2752998288832
 21
-0.5275292529230434
 31
0.0
  0
LINE
  5
18B
330
17C
100
AcDbEntity
  8
0
 62
     0
370
    -2
100
AcDbLine
 10
685.0252998288834
 20
339.9605797461791
 30
0.0
 11
685.0252998288834
 21
1.972470747076956
 31
0.0
  0
SOLID
  5
18C
330
17C
100
AcDbEntity
  8
0
 62
     0
100
AcDbTrace
 10
684.6086331622167
 20
339.9605797461791
 30
0.0
 11
685.4419664955501
 21
339.9605797461791
 31
0.0
 12
685.0252998288834
 22
342.4605797461791
 32
0.0
 13
685.0252998288834
 23
342.4605797461791
 33
0.0
  0
SOLID
  5
18D
330
17C
100
AcDbEntity
  8
0
 62
     0
100
AcDbTrace
 10
684.6086331622167
 20
1.972470747076956
 30
0.0
 11
685.44196649555
 21
1.972470747076956
 31
0.0
 12
685.0252998288834
 22
-0.5275292529230431
 32
0.0
 13
685.0252998288834
 23
-0.5275292529230431
 33
0.0
  0
MTEXT
  5
18E
330
17C
100
AcDbEntity
  8
0
 62
     0
100
AcDbMText
 10
682.4955379241214
 20
170.9665252466282
 30
0.0
 40
2.5
 41
0.0
 71
     5
 72
     1
  1
342.99 [13 1/2]
 11
0.0000000000000001
 21
1.0
 31
0.0
 73
     1
 44
1.0
  0
POINT
  5
18F
330
17C
100
AcDbEntity
  8
Defpoints
 62
     0
100
AcDbPoint
 10
442.9978637847789
 20
342.4605797461792
 30
0.0
  0
POINT
  5
190
330
17C
100
AcDbEntity
  8
Defpoints
 62
     0
100
AcDbPoint
 10
442.8736238060146
 20
-0.5275292529229745
 30
0.0
  0
POINT
  5
191
330
17C
100
AcDbEntity
  8
Defpoints
 62
     0
100
AcDbPoint
 10
685.0252998288834
 20
-0.5275292529230431
 30
0.0
  0
ENDBLK
  5
187
330
17C
100
AcDbEntity
  8
0
100
AcDbBlockEnd
  0
BLOCK
  5
1A9
330
19F
100
AcDbEntity
  8
0
100
AcDbBlockBegin
  2
*D11
 70
     1
 10
0.0
 20
0.0
 30
0.0
  3
*D11
  1

  0
LINE
  5
1AC
330
19F
100
AcDbEntity
  8
0
 62
     0
370
    -2
100
AcDbLine
 10
445.7775124198158
 20
171.600675895089
 30
0.0
 11
445.7775124198158
 21
365.2248544792418
 31
0.0
  0
LINE
  5
1AD
330
19F
100
AcDbEntity
  8
0
 62
     0
370
    -2
100
AcDbLine
 10
236.2777967068687
 20
171.600675895089
 30
0.0
 11
236.2777967068687
 21
365.2248544792418
 31
0.0
  0
LINE
  5
1AE
330
19F
100
AcDbEntity
  8
0
 62
     0
370
    -2
100
AcDbLine
 10
443.2775124198157
 20
363.9748544792417
 30
0.0
 11
238.7777967068687
 21
363.9748544792417
 31
0.0
  0
SOLID
  5
1AF
330
19F
100
AcDbEntity
  8
0
 62
     0
100
AcDbTrace
 10
443.2775124198157
 20
364.3915211459084
 30
0.0
 11
443.2775124198157
 21
363.558187812575
 31
0.0
 12
445.7775124198158
 22
363.9748544792417
 32
0.0
 13
445.7775124198158
 23
363.9748544792417
 33
0.0
  0
SOLID
  5
1B0
330
19F
100
AcDbEntity
  8
0
 62
     0
100
AcDbTrace
 10
238.7777967068687
 20
364.3915211459084
 30
0.0
 11
238.7777967068687
 21
363.558187812575
 31
0.0
 12
236.2777967068687
 22
363.9748544792417
 32
0.0
 13
236.2777967068687
 23
363.9748544792417
 33
0.0
  0
MTEXT
  5
1B1
330
19F
100
AcDbEntity
  8
0
 62
     0
100
AcDbMText
 10
341.0276545633422
 20
366.5046163840036
 30
0.0
 40
2.5
 41
0.0
 71
     5
 72
     1
  1
209.5 [8 1/4]
 73
     1
 44
1.0
  0
POINT
  5
1B2
330
19F
100
AcDbEntity
  8
Defpoints
 62
     0
100
AcDbPoint
 10
445.7775124198158
 20
170.975675895089
 30
0.0
  0
POINT
  5
1B3
330
19F
100
AcDbEntity
  8
Defpoints
 62
     0
100
AcDbPoint
 10
236.2777967068687
 20
170.975675895089
 30
0.0
  0
POINT
  5
1B4
330
19F
100
AcDbEntity
  8
Defpoints
 62
     0
100
AcDbPoint
 10
236.2777967068687
 20
363.9748544792417
 30
0.0
  0
ENDBLK
  5
1AA
330
19F
100
AcDbEntity
  8
0
100
AcDbBlockEnd
  0
BLOCK
  5
1C1
330
1B7
100
AcDbEntity
  8
0
100
AcDbBlockBegin
  2
*D12
 70
     1
 10
0.0
 20
0.0
 30
0.0
  3
*D12
  1

  0
LINE
  5
1B8
330
1B7
100
AcDbEntity
  8
0
 62
     0
370
    -2
100
AcDbLine
 10
445.7775124198158
 20
172.225675895089
 30
0.0
 11
445.7775124198158
 21
365.2248544792418
 31
0.0
  0
LINE
  5
1B9
330
1B7
100
AcDbEntity
  8
0
 62
     0
370
    -2
100
AcDbLine
 10
655.2758369420487
 20
172.225675895089
 30
0.0
 11
655.2758369420487
 21
365.2248544792418
 31
0.0
  0
LINE
  5
1BA
330
1B7
100
AcDbEntity
  8
0
 62
     0
370
    -2
100
AcDbLine
 10
448.2775124198158
 20
363.9748544792417
 30
0.0
 11
652.7758369420487
 21
363.9748544792417
 31
0.0
  0
SOLID
  5
1BB
330
1B7
100
AcDbEntity
  8
0
 62
     0
100
AcDbTrace
 10
448.2775124198158
 20
364.3915211459084
 30
0.0
 11
448.2775124198158
 21
363.558187812575
 31
0.0
 12
445.7775124198158
 22
363.9748544792417
 32
0.0
 13
445.7775124198158
 23
363.9748544792417
 33
0.0
  0
SOLID
  5
1BC
330
1B7
100
AcDbEntity
  8
0
 62
     0
100
AcDbTrace
 10
652.7758369420487
 20
364.3915211459084
 30
0.0
 11
652.7758369420487
 21
363.558187812575
 31
0.0
 12
655.2758369420487
 22
363.9748544792417
 32
0.0
 13
655.2758369420487
 23
363.9748544792417
 33
0.0
  0
MTEXT
  5
1BD
330
1B7
100
AcDbEntity
  8
0
 62
     0
100
AcDbMText
 10
550.5266746809321
 20
366.5046163840036
 30
0.0
 40
2.5
 41
0.0
 71
     5
 72
     1
  1
209.5 [8 1/4]
 73
     1
 44
1.0
  0
POINT
  5
1BE
330
1B7
100
AcDbEntity
  8
Defpoints
 62
     0
100
AcDbPoint
 10
445.7775124198158
 20
171.600675895089
 30
0.0
  0
POINT
  5
1BF
330
1B7
100
AcDbEntity
  8
Defpoints
 62
     0
100
AcDbPoint
 10
655.2758369420487
 20
171.600675895089
 30
0.0
  0
POINT
  5
1C0
330
1B7
100
AcDbEntity
  8
Defpoints
 62
     0
100
AcDbPoint
 10
655.2758369420487
 20
363.9748544792417
 30
0.0
  0
ENDBLK
  5
1C2
330
1B7
100
AcDbEntity
  8
0
100
AcDbBlockEnd
  0
BLOCK
  5
1DA
330
1D0
100
AcDbEntity
  8
0
100
AcDbBlockBegin
  2
*D13
 70
     1
 10
0.0
 20
0.0
 30
0.0
  3
*D13
  1

  0
LINE
  5
1D1
330
1D0
100
AcDbEntity
  8
0
 62
     0
370
    -2
100
AcDbLine
 10
236.2777967068687
 20
364.5998544792417
 30
0.0
 11
236.2777967068687
 21
365.6415211459084
 31
0.0
  0
LINE
  5
1D2
330
1D0
100
AcDbEntity
  8
0
 62
     0
370
    -2
100
AcDbLine
 10
655.2758369420487
 20
364.5998544792417
 30
0.0
 11
655.2758369420487
 21
365.6415211459084
 31
0.0
  0
LINE
  5
1D3
330
1D0
100
AcDbEntity
  8
0
 62
     0
370
    -2
100
AcDbLine
 10
238.7777967068687
 20
364.3915211459084
 30
0.0
 11
652.7758369420487
 21
364.3915211459084
 31
0.0
  0
SOLID
  5
1D4
330
1D0
100
AcDbEntity
  8
0
 62
     0
100
AcDbTrace
 10
238.7777967068687
 20
364.8081878125752
 30
0.0
 11
238.7777967068687
 21
363.9748544792417
 31
0.0
 12
236.2777967068687
 22
364.3915211459084
 32
0.0
 13
236.2777967068687
 23
364.3915211459084
 33
0.0
  0
SOLID
  5
1D5
330
1D0
100
AcDbEntity
  8
0
 62
     0
100
AcDbTrace
 10
652.7758369420487
 20
364.8081878125752
 30
0.0
 11
652.7758369420487
 21
363.9748544792417
 31
0.0
 12
655.2758369420487
 22
364.3915211459084
 32
0.0
 13
655.2758369420487
 23
364.3915211459084
 33
0.0
  0
MTEXT
  5
1D6
330
1D0
100
AcDbEntity
  8
0
 62
     0
100
AcDbMText
 10
445.7768168244585
 20
366.9212830506703
 30
0.0
 40
2.5
 41
0.0
 71
     5
 72
     1
  1
419 [16 1/2]
 73
     1
 44
1.0
  0
POINT
  5
1D7
330
1D0
100
AcDbEntity
  8
Defpoints
 62
     0
100
AcDbPoint
 10
236.2777967068687
 20
363.9748544792417
 30
0.0
  0
POINT
  5
1D8
330
1D0
100
AcDbEntity
  8
Defpoints
 62
     0
100
AcDbPoint
 10
655.2758369420487
 20
363.9748544792417
 30
0.0
  0
POINT
  5
1D9
330
1D0
100
AcDbEntity
  8
Defpoints
 62
     0
100
AcDbPoint
 10
655.2758369420487
 20
364.3915211459084
 30
0.0
  0
ENDBLK
  5
1DB
330
1D0
100
AcDbEntity
  8
0
100
AcDbBlockEnd
  0
BLOCK
  5
210
330
206
100
AcDbEntity
  8
0
100
AcDbBlockBegin
  2
*D14
 70
     1
 10
0.0
 20
0.0
 30
0.0
  3
*D14
  1

  0
LINE
  5
213
330
206
100
AcDbEntity
  8
0
 62
     0
370
    -2
100
AcDbLine
 10
259.2775124198158
 20
171.600675895089
 30
0.0
 11
259.2775124198158
 21
343.7798909302019
 31
0.0
  0
LINE
  5
214
330
206
100
AcDbEntity
  8
0
 62
     0
370
    -2
100
AcDbLine
 10
632.2775124198157
 20
171.600675895089
 30
0.0
 11
632.2775124198157
 21
343.7798909302019
 31
0.0
  0
LINE
  5
215
330
206
100
AcDbEntity
  8
0
 62
     0
370
    -2
100
AcDbLine
 10
261.7775124198158
 20
342.5298909302019
 30
0.0
 11
629.7775124198157
 21
342.5298909302019
 31
0.0
  0
SOLID
  5
216
330
206
100
AcDbEntity
  8
0
 62
     0
100
AcDbTrace
 10
261.7775124198158
 20
342.9465575968686
 30
0.0
 11
261.7775124198158
 21
342.1132242635352
 31
0.0
 12
259.2775124198158
 22
342.5298909302019
 32
0.0
 13
259.2775124198158
 23
342.5298909302019
 33
0.0
  0
SOLID
  5
217
330
206
100
AcDbEntity
  8
0
 62
     0
100
AcDbTrace
 10
629.7775124198157
 20
342.9465575968686
 30
0.0
 11
629.7775124198157
 21
342.1132242635352
 31
0.0
 12
632.2775124198157
 22
342.5298909302019
 32
0.0
 13
632.2775124198157
 23
342.5298909302019
 33
0.0
  0
MTEXT
  5
218
330
206
100
AcDbEntity
  8
0
 62
     0
100
AcDbMText
 10
445.7775124198158
 20
345.0596528349639
 30
0.0
 40
2.5
 41
0.0
 71
     5
 72
     1
  1
373 [14 5/8]
 73
     1
 44
1.0
  0
POINT
  5
219
330
206
100
AcDbEntity
  8
Defpoints
 62
     0
100
AcDbPoint
 10
259.2775124198158
 20
170.975675895089
 30
0.0
  0
POINT
  5
21A
330
206
100
AcDbEntity
  8
Defpoints
 62
     0
100
AcDbPoint
 10
632.2775124198157
 20
170.975675895089
 30
0.0
  0
POINT
  5
21B
330
206
100
AcDbEntity
  8
Defpoints
 62
     0
100
AcDbPoint
 10
632.2775124198157
 20
342.5298909302019
 30
0.0
  0
ENDBLK
  5
211
330
206
100
AcDbEntity
  8
0
100
AcDbBlockEnd
  0
BLOCK
  5
228
330
21E
100
AcDbEntity
  8
0
100
AcDbBlockBegin
  2
*D15
 70
     1
 10
0.0
 20
0.0
 30
0.0
  3
*D15
  1

  0
LINE
  5
22B
330
21E
100
AcDbEntity
  8
0
 62
     0
370
    -2
100
AcDbLine
 10
446.4025124198157
 20
320.975675895089
 30
0.0
 11
676.7219434412936
 21
320.975675895089
 31
0.0
  0
LINE
  5
22C
330
21E
100
AcDbEntity
  8
0
 62
     0
370
    -2
100
AcDbLine
 10
446.4025124198157
 20
20.97567589508898
 30
0.0
 11
676.7219434412936
 21
20.97567589508892
 31
0.0
  0
LINE
  5
22D
330
21E
100
AcDbEntity
  8
0
 62
     0
370
    -2
100
AcDbLine
 10
675.4719434412936
 20
318.475675895089
 30
0.0
 11
675.4719434412936
 21
23.47567589508892
 31
0.0
  0
SOLID
  5
22E
330
21E
100
AcDbEntity
  8
0
 62
     0
100
AcDbTrace
 10
675.0552767746271
 20
318.475675895089
 30
0.0
 11
675.8886101079602
 21
318.475675895089
 31
0.0
 12
675.4719434412936
 22
320.975675895089
 32
0.0
 13
675.4719434412936
 23
320.975675895089
 33
0.0
  0
SOLID
  5
22F
330
21E
100
AcDbEntity
  8
0
 62
     0
100
AcDbTrace
 10
675.055276774627
 20
23.47567589508892
 30
0.0
 11
675.8886101079602
 21
23.47567589508892
 31
0.0
 12
675.4719434412936
 22
20.97567589508892
 32
0.0
 13
675.4719434412936
 23
20.97567589508892
 33
0.0
  0
MTEXT
  5
230
330
21E
100
AcDbEntity
  8
0
 62
     0
100
AcDbMText
 10
672.9421815365317
 20
170.975675895089
 30
0.0
 40
2.5
 41
0.0
 71
     5
 72
     1
  1
300 [11 3/4]
 11
0.0000000000000001
 21
1.0
 31
0.0
 73
     1
 44
1.0
  0
POINT
  5
231
330
21E
100
AcDbEntity
  8
Defpoints
 62
     0
100
AcDbPoint
 10
445.7775124198158
 20
320.975675895089
 30
0.0
  0
POINT
  5
232
330
21E
100
AcDbEntity
  8
Defpoints
 62
     0
100
AcDbPoint
 10
445.7775124198158
 20
20.97567589508898
 30
0.0
  0
POINT
  5
233
330
21E
100
AcDbEntity
  8
Defpoints
 62
     0
100
AcDbPoint
 10
675.4719434412936
 20
20.97567589508892
 30
0.0
  0
ENDBLK
  5
229
330
21E
100
AcDbEntity
  8
0
100
AcDbBlockEnd
  0
BLOCK
  5
24C
330
242
100
AcDbEntity
  8
0
100
AcDbBlockBegin
  2
*D16
 70
     1
 10
0.0
 20
0.0
 30
0.0
  3
*D16
  1

  0
LINE
  5
24F
330
242
100
AcDbEntity
  8
0
 62
     0
370
    -2
100
AcDbLine
 10
437.1594243118364
 20
78.07206053968686
 30
0.0
 11
436.5344243118363
 21
78.07206053968686
 31
0.0
  0
LINE
  5
250
330
242
100
AcDbEntity
  8
0
 62
     0
370
    -2
100
AcDbLine
 10
437.1594243118364
 20
20.97511970195285
 30
0.0
 11
436.5344243118363
 21
20.97511970195285
 31
0.0
  0
LINE
  5
251
330
242
100
AcDbEntity
  8
0
 62
     0
370
    -2
100
AcDbLine
 10
437.7844243118365
 20
75.57206053968686
 30
0.0
 11
437.7844243118365
 21
23.47511970195285
 31
0.0
  0
SOLID
  5
252
330
242
100
AcDbEntity
  8
0
 62
     0
100
AcDbTrace
 10
437.3677576451696
 20
75.57206053968686
 30
0.0
 11
438.201090978503
 21
75.57206053968686
 31
0.0
 12
437.7844243118365
 22
78.07206053968686
 32
0.0
 13
437.7844243118365
 23
78.07206053968686
 33
0.0
  0
SOLID
  5
253
330
242
100
AcDbEntity
  8
0
 62
     0
100
AcDbTrace
 10
437.3677576451696
 20
23.47511970195285
 30
0.0
 11
438.201090978503
 21
23.47511970195285
 31
0.0
 12
437.7844243118365
 22
20.97511970195285
 32
0.0
 13
437.7844243118365
 23
20.97511970195285
 33
0.0
  0
MTEXT
  5
254
330
242
100
AcDbEntity
  8
0
 62
     0
100
AcDbMText
 10
435.2546624070745
 20
49.52359012081991
 30
0.0
 40
2.5
 41
0.0
 71
     5
 72
     1
  1
57.1 [2 1/4]
 11
0.0000000000000001
 21
1.0
 31
0.0
 73
     1
 44
1.0
  0
POINT
  5
255
330
242
100
AcDbEntity
  8
Defpoints
 62
     0
100
AcDbPoint
 10
437.7844243118365
 20
78.07206053968686
 30
0.0
  0
POINT
  5
256
330
242
100
AcDbEntity
  8
Defpoints
 62
     0
100
AcDbPoint
 10
437.7844243118365
 20
20.97511970195285
 30
0.0
  0
POINT
  5
257
330
242
100
AcDbEntity
  8
Defpoints
 62
     0
100
AcDbPoint
 10
437.7844243118365
 20
20.97511970195285
 30
0.0
  0
ENDBLK
  5
24D
330
242
100
AcDbEntity
  8
0
100
AcDbBlockEnd
  0
ENDSEC
  0
SECTION
  2
ENTITIES
  0
ELLIPSE
  5
203
330
21
100
AcDbEntity
  8
0
  6
ACAD_ISO02W100
 62
     1
100
AcDbEllipse
 10
445.7775124198158
 20
170.975675895089
 30
0.0
 11
-186.5
 21
0.0
 31
0.0
210
0.0
220
0.0
230
1.0
 40
0.8050322243735696
 41
0.0
 42
6.283185307179585
  0
SPLINE
  5
204
330
21
100
AcDbEntity
  8
0
 62
     3
100
AcDbSpline
210
0.0
220
0.0
230
1.0
 70
    11
 71
     3
 72
    82
 73
    78
 74
     0
 42
0.0000000001
 43
0.0000000001
 40
0.0
 40
0.0
 40
0.0
 40
0.0
 40
0.1090769962427659
 40
0.1090769962427659
 40
0.2800871476320722
 40
0.2800871476320722
 40
0.4510972990213786
 40
0.4510972990213786
 40
0.622107450410685
 40
0.622107450410685
 40
0.7931176017999913
 40
0.7931176017999913
 40
0.9641277531892974
 40
0.9641277531892974
 40
1.135137904578602
 40
1.135137904578602
 40
1.306148055967909
 40
1.306148055967909
 40
1.477158207357215
 40
1.477158207357215
 40
1.648168358746522
 40
1.648168358746522
 40
1.819178510135829
 40
1.819178510135829
 40
1.990188661525134
 40
1.990188661525134
 40
2.16119881291444
 40
2.16119881291444
 40
2.332208964303748
 40
2.332208964303748
 40
2.503219115693054
 40
2.503219115693054
 40
2.674229267082359
 40
2.674229267082359
 40
2.845239418471667
 40
2.845239418471667
 40
3.016249569860973
 40
3.016249569860973
 40
3.187259721250279
 40
3.187259721250279
 40
3.358269872639584
 40
3.358269872639584
 40
3.529280024028891
 40
3.529280024028891
 40
3.700290175418198
 40
3.700290175418198
 40
3.871300326807503
 40
3.871300326807503
 40
4.042310478196809
 40
4.042310478196809
 40
4.213320629586116
 40
4.213320629586116
 40
4.384330780975423
 40
4.384330780975423
 40
4.555340932364728
 40
4.555340932364728
 40
4.726351083754035
 40
4.726351083754035
 40
4.897361235143342
 40
4.897361235143342
 40
5.068371386532648
 40
5.068371386532648
 40
5.239381537921954
 40
5.239381537921954
 40
5.410391689311261
 40
5.410391689311261
 40
5.581401840700566
 40
5.581401840700566
 40
5.752411992089871
 40
5.752411992089871
 40
5.923422143479179
 40
5.923422143479179
 40
6.094432294868486
 40
6.094432294868486
 40
6.265442446257792
 40
6.265442446257792
 40
6.283185307179585
 40
6.283185307179585
 40
6.283185307179585
 40
6.283185307179585
 10
253.2775124198158
 20
170.9756758950889
 30
0.0
 10
253.2775124198158
 20
165.2458021029371
 30
0.0
 10
253.6661649527593
 20
159.5159604112576
 30
0.0
 10
255.6548532281643
 20
144.8968943345423
 30
0.0
 10
257.8188973978138
 20
136.0616370418306
 30
0.0
 10
263.9711406274808
 20
118.843570816739
 30
0.0
 10
267.9589731208475
 20
110.4610696886454
 30
0.0
 10
277.6254372619472
 20
94.39651874963775
 30
0.0
 10
283.3037367935984
 20
86.71457267411804
 30
0.0
 10
296.1714822290769
 20
72.26886513182531
 30
0.0
 10
303.3606892396683
 20
65.50513923783475
 30
0.0
 10
319.0329546067254
 20
53.08175961540628
 30
0.0
 10
327.5158216851896
 20
47.42215563250585
 30
0.0
 10
345.5267106148391
 20
37.36002164709641
 30
0.0
 10
355.0545360338962
 20
32.95756454395507
 30
0.0
 10
374.8808784083163
 20
25.52799106199922
 30
0.0
 10
385.1791706017427
 20
22.50094923531352
 30
0.0
 10
406.2524713911606
 20
17.90343517928561
 30
0.0
 10
417.0272274364951
 20
16.33301724634345
 30
0.0
 10
438.7471452126114
 20
14.69093071018201
 30
0.0
 10
449.6920382920053
 20
14.61928287187889
 30
0.0
 10
471.4414530276559
 20
15.976697982908
 30
0.0
 10
482.2457052784578
 20
17.40574371757773
 30
0.0
 10
503.4067270676953
 20
21.72622628135771
 30
0.0
 10
513.7632419251875
 20
24.61761157955697
 30
0.0
 10
533.7332640507858
 20
31.78522599032884
 30
0.0
 10
543.3465436333075
 20
36.0613816485341
 30
0.0
 10
561.5534341559546
 20
45.88369446146525
 30
0.0
 10
570.1468464915217
 20
51.42977748524706
 30
0.0
 10
586.0625912794627
 20
63.64211148188946
 30
0.0
 10
593.3847338385084
 20
70.30831007729735
 30
0.0
 10
606.5374953661593
 20
84.57802529135538
 30
0.0
 10
612.3678826333322
 20
92.18150714811592
 30
0.0
 10
622.3537605074007
 20
108.1111603636496
 30
0.0
 10
626.5089277885549
 20
116.4372402427459
 30
0.0
 10
633.0062424622252
 20
133.5671995877466
 30
0.0
 10
635.3480195178426
 20
142.3707952374331
 30
0.0
 10
638.1364144965962
 20
160.1857376621651
 30
0.0
 10
638.582806380744
 20
169.1965588439176
 30
0.0
 10
637.5640558375662
 20
187.142900896794
 30
0.0
 10
636.0990019210082
 20
196.077832518977
 30
0.0
 10
631.3092853759923
 20
213.5939482573747
 30
0.0
 10
627.9849550493313
 20
222.1747289915638
 30
0.0
 10
619.5900841578583
 20
238.724438465166
 30
0.0
 10
614.5199040530853
 20
246.6932027270777
 30
0.0
 10
602.7969992762126
 20
261.7896095911752
 30
0.0
 10
596.1445458403853
 20
268.9172055913584
 30
0.0
 10
581.4612514737595
 20
282.1334859297047
 30
0.0
 10
573.4306121932538
 20
288.2221299240249
 30
0.0
 10
556.2286513432232
 20
299.1951405130172
 30
0.0
 10
547.057519916211
 20
304.079440986028
 30
0.0
 10
527.8401658055266
 20
312.5123572504569
 30
0.0
 10
517.7941564829609
 20
316.0608962091304
 30
0.0
 10
497.1145762326023
 20
321.7270619380365
 30
0.0
 10
486.4812485434024
 20
323.8446248484461
 30
0.0
 10
464.9296575874295
 20
326.5919896360878
 30
0.0
 10
454.0116586984522
 20
327.2217573515032
 30
0.0
 10
432.2007912247578
 20
326.9765885101261
 30
0.0
 10
421.308193621166
 20
326.1016550810779
 30
0.0
 10
399.8575447380811
 20
322.8705334482389
 30
0.0
 10
389.2997552993172
 20
320.5143850053542
 30
0.0
 10
368.8194352270843
 20
314.3840219302272
 30
0.0
 10
358.8971432919036
 20
310.609874666497
 30
0.0
 10
339.9722680986075
 20
301.7447904920694
 30
0.0
 10
330.9698933563058
 20
296.6539303539225
 30
0.0
 10
314.1463159609152
 20
285.2925428226063
 30
0.0
 10
306.3253020852185
 20
279.0220777101954
 30
0.0
 10
292.0970303297703
 20
265.4722705322826
 30
0.0
 10
285.6899813633627
 20
258.1929656909201
 30
0.0
 10
274.4875653916364
 20
242.8284382069616
 30
0.0
 10
269.6924854084636
 20
234.7432718317859
 30
0.0
 10
261.8700504636909
 20
218.0010002651681
 30
0.0
 10
258.8430638207643
 20
209.3440925447521
 30
0.0
 10
254.6610363174774
 20
191.7200590247475
 30
0.0
 10
253.5063022758023
 20
182.7533773959576
 30
0.0
 10
253.2877838270114
 20
172.8397601125536
 30
0.0
 10
253.2775124198158
 20
171.9077180056665
 30
0.0
 10
253.2775124198158
 20
170.9756758950889
 30
0.0
  0
LINE
  5
237
330
21
100
AcDbEntity
  8
0
100
AcDbLine
 10
261.7775124198158
 20
342.5298909302019
 30
0.0
 11
629.7775124198157
 21
342.5298909302019
 31
0.0
  0
SOLID
  5
238
330
21
100
AcDbEntity
  8
0
100
AcDbTrace
 10
261.7775124198158
 20
342.9465575968686
 30
0.0
 11
261.7775124198158
 21
342.1132242635352
 31
0.0
 12
259.2775124198158
 22
342.5298909302019
 32
0.0
 13
259.2775124198158
 23
342.5298909302019
 33
0.0
  0
SOLID
  5
239
330
21
100
AcDbEntity
  8
0
100
AcDbTrace
 10
629.7775124198157
 20
342.9465575968686
 30
0.0
 11
629.7775124198157
 21
342.1132242635352
 31
0.0
 12
632.2775124198157
 22
342.5298909302019
 32
0.0
 13
632.2775124198157
 23
342.5298909302019
 33
0.0
  0
MTEXT
  5
23A
330
21
100
AcDbEntity
  8
0
100
AcDbMText
 10
445.2001337695104
 20
363.4229949945948
 30
0.0
 40
2.5
 41
0.0
 71
     5
 72
     1
  1
{\H3.2x;373 [14 5/8]}
 73
     1
 44
1.0
  0
LINE
  5
23D
330
21
100
AcDbEntity
  8
0
100
AcDbLine
 10
675.4719434412936
 20
318.475675895089
 30
0.0
 11
675.4719434412936
 21
23.47567589508892
 31
0.0
  0
SOLID
  5
23E
330
21
100
AcDbEntity
  8
0
100
AcDbTrace
 10
675.0552767746271
 20
318.475675895089
 30
0.0
 11
675.8886101079602
 21
318.475675895089
 31
0.0
 12
675.4719434412936
 22
320.975675895089
 32
0.0
 13
675.4719434412936
 23
320.975675895089
 33
0.0
  0
SOLID
  5
23F
330
21
100
AcDbEntity
  8
0
100
AcDbTrace
 10
675.055276774627
 20
23.47567589508892
 30
0.0
 11
675.8886101079602
 21
23.47567589508892
 31
0.0
 12
675.4719434412936
 22
20.97567589508892
 32
0.0
 13
675.4719434412936
 23
20.97567589508892
 33
0.0
  0
MTEXT
  5
240
330
21
100
AcDbEntity
  8
0
100
AcDbMText
 10
663.7239194404187
 20
171.1774499862212
 30
0.0
 40
8.0
 41
0.0
 71
     5
 72
     1
  1
300 [11 3/4]
 11
0.0000000000000001
 21
1.0
 31
0.0
 73
     1
 44
1.0
  0
LINE
  5
25A
330
21
100
AcDbEntity
  8
0
100
AcDbLine
 10
437.1594243118364
 20
20.97511970195285
 30
0.0
 11
436.5344243118363
 21
20.97511970195285
 31
0.0
  0
LINE
  5
25B
330
21
100
AcDbEntity
  8
0
100
AcDbLine
 10
437.7844243118365
 20
75.57206053968686
 30
0.0
 11
437.7844243118365
 21
23.47511970195285
 31
0.0
  0
SOLID
  5
25D
330
21
100
AcDbEntity
  8
0
100
AcDbTrace
 10
437.3677576451696
 20
23.47511970195285
 30
0.0
 11
438.201090978503
 21
23.47511970195285
 31
0.0
 12
437.7844243118365
 22
20.97511970195285
 32
0.0
 13
437.7844243118365
 23
20.97511970195285
 33
0.0
  0
MTEXT
  5
278
330
21
100
AcDbEntity
  8
0
 62
     1
100
AcDbMText
 10
345.368093112163
 20
93.86734207477264
 30
0.0
 40
8.0
 41
305.7185185185185
 71
     1
 72
     5
  1
VERIFY ALL MEASUREMENTS BEFORE CUTTING. NOT LIABLE FOR ACCURACY OF THIS DXF.
 73
     1
 44
1.0
  0
LINE
  5
279
330
21
100
AcDbEntity
  8
0
100
AcDbLine
 10
461.6742224269012
 20
175.9563783397061
 30
0.0
 11
461.6742224269012
 21
175.9563783397061
 31
0.0
  0
LINE
  5
27A
330
21
100
AcDbEntity
  8
0
100
AcDbLine
 10
461.6742224269012
 20
175.9563783397061
 30
0.0
 11
461.6742224269012
 21
175.9563783397061
 31
0.0
  0
LINE
  5
27B
330
21
100
AcDbEntity
  8
0
100
AcDbLine
 10
461.6742224269012
 20
175.9563783397061
 30
0.0
 11
461.6742224269012
 21
175.9563783397061
 31
0.0
  0
MTEXT
  5
27C
330
21
100
AcDbEntity
  8
0
 62
     1
100
AcDbMText
 10
345.5580626463204
 20
114.6574602987592
 30
0.0
 40
5.0
 41
316.1135419359495
 71
     1
 72
     5
  1
{\fArial|b1|i0|c0|p34;Use outside line for reveal mount cut:\fArial|b0|i0|c0|p34;\PSink rim is 1/4" revealed from the coutnertop opening.}
 73
     1
 44
1.0
  0
MTEXT
  5
27D
330
21
100
AcDbEntity
  8
0
 62
     1
100
AcDbMText
 10
345.0280459627346
 20
137.6909475861404
 30
0.0
 40
5.0
 41
316.5774964455378
 71
     1
 72
     5
  1
Use full template for a flush mount cut\P(Sink is flushed to the edge of counter top opening)
 73
     1
 44
1.0
  0
LINE
  5
27E
330
21
100
AcDbEntity
  8
0
100
AcDbLine
 10
348.4067745506083
 20
126.2904358120396
 30
0.0
 11
348.2892745506083
 21
126.2904358120396
 31
0.0
  0
LINE
  5
27F
330
21
100
AcDbEntity
  8
0
100
AcDbLine
 10
348.4692745506084
 20
130.0275859566082
 30
0.0
 11
348.4692745506084
 21
127.6659434057729
 31
0.0
  0
LINE
  5
280
330
21
100
AcDbEntity
  8
0
100
AcDbLine
 10
348.4692745506084
 20
126.4704358120396
 30
0.0
 11
348.4692745506084
 21
127.9190108843239
 31
0.0
  0
SOLID
  5
281
330
21
100
AcDbEntity
  8
0
100
AcDbTrace
 10
348.4392745506083
 20
126.4704358120396
 30
0.0
 11
348.4992745506083
 21
126.4704358120396
 31
0.0
 12
348.4692745506084
 22
126.2904358120396
 32
0.0
 13
348.4692745506084
 23
126.2904358120396
 33
0.0
  0
ENDSEC
  0
SECTION
  2
OBJECTS
  0
DICTIONARY
  5
C
330
0
100
AcDbDictionary
281
     1
  3
ACAD_COLOR
350
1C
  3
ACAD_GROUP
350
D
  3
ACAD_LAYOUT
350
1A
  3
ACAD_MATERIAL
350
1B
  3
ACAD_MLINESTYLE
350
17
  3
ACAD_PLOTSETTINGS
350
19
  3
ACAD_PLOTSTYLENAME
350
E
  0
DICTIONARY
  5
78
330
2
100
AcDbDictionary
280
     1
281
     1
  3
ACAD_LAYERSTATES
360
79
  0
DICTIONARY
  5
1C
102
{ACAD_REACTORS
330
C
102
}
330
C
100
AcDbDictionary
281
     1
  0
DICTIONARY
  5
D
102
{ACAD_REACTORS
330
C
102
}
330
C
100
AcDbDictionary
281
     1
  0
DICTIONARY
  5
1A
102
{ACAD_REACTORS
330
C
102
}
330
C
100
AcDbDictionary
281
     1
  3
Model
350
24
  3
布局1
350
20
  3
布局2
350
28
  0
DICTIONARY
  5
1B
102
{ACAD_REACTORS
330
C
102
}
330
C
100
AcDbDictionary
281
     1
  0
DICTIONARY
  5
17
102
{ACAD_REACTORS
330
C
102
}
330
C
100
AcDbDictionary
281
     1
  3
Standard
350
18
  0
DICTIONARY
  5
19
102
{ACAD_REACTORS
330
C
102
}
330
C
100
AcDbDictionary
281
     1
  0
ACDBDICTIONARYWDFLT
  5
E
102
{ACAD_REACTORS
330
C
102
}
330
C
100
AcDbDictionary
281
     1
  3
Normal
350
F
100
AcDbDictionaryWithDefault
340
F
  0
DICTIONARY
  5
79
102
{ACAD_REACTORS
330
78
102
}
330
78
100
AcDbDictionary
281
     1
  0
LAYOUT
  5
24
102
{ACAD_REACTORS
330
1A
102
}
330
1A
100
AcDbPlotSettings
  1

  2
\\ALISE-4F2ADA9D7\Canon MP250 series Printer
  4

  6

 40
0.0
 41
0.0
 42
0.0
 43
0.0
 44
0.0
 45
0.0
 46
0.0
 47
0.0
 48
0.0
 49
0.0
140
0.0
141
0.0
142
1.0
143
1.0
 70
  1712
 72
     0
 73
     0
 74
     0
  7

 75
     0
147
1.0
 76
     0
 77
     2
 78
   300
148
0.0
149
0.0
100
AcDbLayout
  1
Model
 70
     1
 71
     0
 10
0.0
 20
0.0
 11
12.0
 21
9.0
 12
0.0
 22
0.0
 32
0.0
 14
0.0
 24
0.0
 34
0.0
 15
0.0
 25
0.0
 35
0.0
146
0.0
 13
0.0
 23
0.0
 33
0.0
 16
1.0
 26
0.0
 36
0.0
 17
0.0
 27
1.0
 37
0.0
 76
     0
330
21
  0
LAYOUT
  5
20
102
{ACAD_REACTORS
330
1A
102
}
330
1A
100
AcDbPlotSettings
  1

  2
\\ALISE-4F2ADA9D7\Canon MP250 series Printer
  4

  6

 40
0.0
 41
0.0
 42
0.0
 43
0.0
 44
0.0
 45
0.0
 46
0.0
 47
0.0
 48
0.0
 49
0.0
140
0.0
141
0.0
142
1.0
143
1.0
 70
   688
 72
     0
 73
     0
 74
     5
  7

 75
    16
147
1.0
 76
     0
 77
     2
 78
   300
148
0.0
149
0.0
100
AcDbLayout
  1
布局1
 70
     1
 71
     1
 10
0.0
 20
0.0
 11
420.0
 21
297.0
 12
0.0
 22
0.0
 32
0.0
 14
1.000000000000000E+20
 24
1.000000000000000E+20
 34
1.000000000000000E+20
 15
-1.000000000000000E+20
 25
-1.000000000000000E+20
 35
-1.000000000000000E+20
146
0.0
 13
0.0
 23
0.0
 33
0.0
 16
1.0
 26
0.0
 36
0.0
 17
0.0
 27
1.0
 37
0.0
 76
     0
330
1D
  0
LAYOUT
  5
28
102
{ACAD_REACTORS
330
1A
102
}
330
1A
100
AcDbPlotSettings
  1

  2
\\ALISE-4F2ADA9D7\Canon MP250 series Printer
  4

  6

 40
0.0
 41
0.0
 42
0.0
 43
0.0
 44
0.0
 45
0.0
 46
0.0
 47
0.0
 48
0.0
 49
0.0
140
0.0
141
0.0
142
1.0
143
1.0
 70
   688
 72
     0
 73
     0
 74
     5
  7

 75
    16
147
1.0
 76
     0
 77
     2
 78
   300
148
0.0
149
0.0
100
AcDbLayout
  1
布局2
 70
     1
 71
     2
 10
0.0
 20
0.0
 11
12.0
 21
9.0
 12
0.0
 22
0.0
 32
0.0
 14
0.0
 24
0.0
 34
0.0
 15
0.0
 25
0.0
 35
0.0
146
0.0
 13
0.0
 23
0.0
 33
0.0
 16
1.0
 26
0.0
 36
0.0
 17
0.0
 27
1.0
 37
0.0
 76
     0
330
25
  0
MLINESTYLE
  5
18
102
{ACAD_REACTORS
330
17
102
}
330
17
100
AcDbMlineStyle
  2
STANDARD
 70
     0
  3

 62
   256
 51
90.0
 52
90.0
 71
     2
 49
0.5
 62
   256
  6
BYLAYER
 49
-0.5
 62
   256
  6
BYLAYER
  0
ACDBPLACEHOLDER
  5
F
102
{ACAD_REACTORS
330
E
102
}
330
E
  0
ENDSEC
  0
EOF
